Upper Levels (Acordes)

Angra

Full Álbum: Secret Garden (2014)
Subida por Ricky98

Compartir


Cambiar Cifrado
Americano Latino

Cambiar Tonalidad
-1 +1
Imprimir FAQ
+A
-A

Texto

Desplazamiento

Transportador

Color de Fondo

Archivos

Mudar para Português

TONALIDAD, TAMAÑO, CIFRADO, SCROL.

Nos renovamos: Ahora puedes cambiar TODO haciendo clic en ICONO de la Guitarra () que aparece en la parte inferior de esta página.


LETRA CON ACORDES

Parte A:
Parte 1 de 5
C|----------------------------------------------|
G|--------------------14------------------------|
D|-----11----------12----12-----12--------------|
A|---9----9---10------------10------------------|
E|-7--------------------------------------------|
B|----------------------------------------------|

Parte 2 de 5
C|----------------------------------------------|
G|---------------------16-----------------------|
D|------13---------14-----14----14--------------|
A|---11----11--12------------12-----------------|
E|-9--------------------------------------------|
B|----------------------------------------------|

Parte 3 de 5
C|----------------------------------------------|
G|----------------------14----------------------|
D|-------11---------12-----12----12-------------|
A|----9------9--10------------10----------------|
E|-7-------------------------------------------|
B|----------------------------------------------|

Parte 4 de 5
C|---------------------------------------11-----|
G|--------------------16------------11----------|
D|------13---------14----14-------9-------------|
A|---11----11---12----------12-7------7--------|
E|-9--------------------------------------------|
B|----------------------------------------------|

Parte 5 de 5
C|----------11-----------10------------10-------|
G|-----11----------11-----------11--------------|
D|---9-----------9------------9-----------------|
A|-7------7----7-------7----7-------7-----------|
E|----------------------------------------------|
B|----------------------------------------------|

Parte B:
Parte 1 de 5
C|----------------------------------------------|
G|----------------------------------------------|
D|----------------------------------------------|
A|---9---------9--------------9-----------------|
E|-0-----0-0-0---0-0-0-0--0-0-------------------|
B|----------------------------------------------|

Parte 2 de 5
C|----------------------------------------------|
G|----------------------------------------------|
D|----------------------------------------------|
A|-------9--------------9--------9--------------|
E|-0-0-0---0-0-0-0--0-0----0-0-0----------------|
B|----------------------------------------------|

Parte 3 de 5
C|----------------------------------------------|
G|----------------------------------------------|
D|----------------------------------------------|
A|--------------7-------7--------------9-------9|
E|-0-0-0-0--0-0---0-0-0---0-0-0-0--0-0---0-0-0--|
B|----------------------------------------------|

Parte 4 de 5
C|----------------------------------------------|
G|----------------------------------------------|
D|----------------------------------------------|
A|--------------9-------9--------------7-------7|
E|-0-0-0-0--0-0---0-0-0---0-0-0-0--0-0---0-0-0--|
B|----------------------------------------------|

Parte 5 de 5
C|----------------------------------------------|
G|----------------------------------------------|
D|----------------------------------------------|
A|--------------3--------2----------------------|
E|-0-0-0-0--0-0----0-0-0-----0-0-0-0--0---------|
B|----------------------------------------------|

Parte C:
Parte 1 de 4:
C|----------------------------------------------|
G|----------------------------------------------|
D|----------------------------------------------|
A|-----7---5---7---10p9---7p5---5h7-------------|
E|-0-0---0---0---0------0-----0-----------------|
B|----------------------------------------------|

Parte 2 de 4:
C|----------------------------------------------|
G|-----------------------------------11h12------|
D|--------------------------10-12-14------------|
A|-----7---5---7---10-12-14---------------------|
E|-0-0---0---0---0------------------------------|
B|----------------------------------------------|

Parte 3 de 4:
C|----------------------------------------------|
G|----------------------------------------------|
D|----------------------------------------------|
A|-----7---5---7---10p9---7p5---5h7-------------|
E|-0-0---0---0---0------0-----0-----------------|
B|----------------------------------------------|

Parte 4 de 4:
C|----------------------------------------------|
G|----------------------------------------------|
D|-----5---4h5-4-------7---5h7-5----------------|
A|-3-3---3-------5-0-0---0-------7--------------|
E|---------------------------------0------------|
B|----------------------------------------------|


Parte D:
Parte 1 de 9:
C|----------------------------------------------|
G|----------------------------------------------|
D|----------------------------------------------|
A|----------------------------------------------|
E|-1p0--0-1p0--0-1p0----0-0-1p0--0-1p0--0-1p0-/|
B|----------------------------------------------|

Parte 2 de 9:
C|----------------------------------------------|
G|----------------------------------------------|
D|--------------7--7--7-------------------------|
A|-0--0--0--0/-----------7--------------3/------|
E|-------------------------x--3--3--3----------|
B|----------------------------------------------|

Parte 3 de 9:
C|----------------------------------------------|
G|----------------------------------------------|
D|-3--3--3--3-----------------------------------|
A|----------------------------------------------|
E|------------x--------------------------------|
B|----------------------------------------------|

Parte 4 de 9:
C|----------------------------------------------|
G|----------------------------------------------|
D|----------------------------------------------|
A|----------------------------------------------|
E|-1p0--0-1p0--0-1p0----0-0-1p0--0-1p0--0-1p0---|
B|----------------------------------------------|

Parte 5 de 9:
C|----------------------------------------------|
G|----------------------------------------------|
D|----------------------------------------------|
A|----------------------------------------------|
E|-0-0-1p0--0-1p0--0-1p0------------------------|
B|----------------------------------------------|

Parte 6 de 9:
C|----------------------------------------------|
G|----------------------------------------------|
D|----------------------------------------------|
A|----------------------------------------------|
E|-0-0-1p0--0-1p0--0-1p0----/------------------|
B|----------------------------------------------|

Parte 7 de 9:
C|----------------------------------------------|
G|----------------------------------------------|
D|--------------7-7----7------------------------|
A|-0--0--0--0/------7-----7---------------------|
E|--------------------------x------------------|
B|----------------------------------------------|

Parte 8 de 9:
C|----------------------------------------------|
G|----------------------------------------------|
D|------------5h7--5----------------------------|
A|-------3/5----------5-------------------------|
E|-3--3-----------------x----------------------|
B|----------------------------------------------|

Parte 9 de 9:
C|----------------------------------------------|
G|----------------------------------------------|
D|------------3---------------------------------|
A|----------------------------------------------|
E|-1----1--1------------------------------------|
B|----------------------------------------------|

Parte E:
Parte 1 de 8:
C|----------------------------------------------|
G|----------------------------------------------|
D|-------------6--------6--------------6-----6--|
A|----------------------------------------------|
E|-4--4--4--4-----4--4-----4--4--4--4-----4-----|
B|----------------------------------------------|

Parte 2 de 8:
C|----------------------------------------------|
G|----------------------------------------------|
D|----------------------------------------------|
A|-------------7--------7--------------7-----7--|
E|-0--0--0--0-----0--0-----0--0--0--0-----0-----|
B|----------------------------------------------|

Parte 3 de 8:
C|----------------------------------------------|
G|----------------------------------------------|
D|----------------------------------------------|
A|-6-----------6--------6--------------6--------|
E|----------------------------------------------|
B|----4--4--4-----4--4-----4--4--4--4-----4--4--|    28

Parte 4 de 8:
C|----------------------------------------------|
G|----------------------------------------------|
D|----------------------------------------------|
A|-4-----------4--------4--------------4-----4--|
E|----------------------------------------------|
B|----2--2--2-----2--2-----2--2--2--2-----2-----|

Parte 5 de 8:
C|----------------------------------------------|
G|----------------------------------------------|
D|-------------6--------6-----6--8/9--7--6--4---|
A|----------------------------------------------|
E|-4--4--4--4-----4--4-----4--------------------|
B|----------------------------------------------|

Parte 6 de 8:
C|----------------------------------------------|
G|----------------------------------------------|
D|-------------------------------------6--4-----|
A|-------------7--------7--------------------7--|
E|-0--0--0--0-----0--0-----0--0--0--0-----------|
B|----------------------------------------------|

Parte 7 de 8:
C|----------------------------------------------|
G|----------------------------------------------|
D|----------------------------------------------|
A|-6-----------6--------6--------------6--7--6--|
E|----------------------------------------------|
B|----4--4--4-----4--4-----4--4--4--4-----------|   34

Parte 8 de 8:
C|----------------------------------------------|
G|----------------------------------------------|
D|----------------------------------------------|
A|-4-----------4--------4--------------4-----4--|
E|----------------------------------------------|
B|----2--2--2-----2--2-----2--2--2--2-----2-----|

Parte F:
Parte 1 de 3:
C|-13------------13--------15-------------------|  35
G|-11--14--------11--14----13-------------------|
D|--9--12---------9--12----11-------------------|
A|-----10------------10-------------------------|
E|----------------------------------------------|
B|----------------------------------------------|

Parte 2 de 3:
C|-13------------13--------15-------------------|
G|-11--14--------11--14----13----16-------------|
D|--9--12---------9--12----11----14-------------|
A|-----10------------10----------12-------------|
E|----------------------------------------------|
B|----------------------------------------------|

Parte 3 de 3:
C|-------11-----------------------10--8---------|
G|-------11-----------------9--8----------------|
D|----9------9--------9--8----------------------|
A|-7------------7--7----------------------------|
E|----------------------------------------------|
B|----------------------------------------------|


Parte G:
Parte 1 de 2:
C|----------------------------------------------|
G|----------------------------------------------|
D|-----------------------5-5-----4--------------|
A|-2b-------4-5-7----5h7-----7------5-----------|
E|-----3----------5-----------------------------|
B|----------------------------------------------|

Parte 2 de 2:
C|----------------------------------------------|
G|----------------------------------------------|
D|----------------------7/9--7--5---------------|
A|-2b-------4-5-7---5h7-------------------------|
E|-----3----------5-----------------------------|
B|----------------------------------------------|

Parte H:
Parte 1 de 2:
C|----------------------------------------------|   43
G|----------------------------------------------|
D|-8---6-----9---8---6-----8-9-8-6--------------|
A|---------------------------------9-7----------|
E|---0---0-0---0---0---0-0-------------9-7------|
B|----------------------------------------------|

Parte 2 de 2:
C|----------------------------------------------|
G|----------------------------------------------|
D|-8---6-----9---8---6---4----------------------|
A|----------------------------------------------|
E|---0---0-0---0---0---0------------------------|
B|----------------------------------------------|


Parte I:
Parte 1 de 3:
C|----------------------------------------------|
G|----------------------------------------------|
D|-8-9-8-6---------9-8-6------9-8-6-------------|
A|---------9-7-----------9-7--------9-7---------|
E|-------------9-7------------------------------|
B|----------------------------------------------|

Parte 2 de 3:
C|----------------------------------------------|
G|----------------------------------------------|
D|-11-10-8------12-11-9-------13--14--13--11--13|
A|---------11-9---------12-10-------------------|
E|----------------------------------------------|
B|----------------------------------------------|

Parte 3 de 3:
C|----------------------------------------------|
G|----------------------------------------------|
D|-11--9-11-9-8---------------------------------|
A|--------------11-9----------------------------|
E|-------------------11------------------------|
B|----------------------------------------------|

Video Clip de Upper Levels


ACORDES PARA GUITARRA

PIANO UKELELE


TOP 20: Las más tocadas de Angra


Toca una Canción al Azar de Angra

Acordes

Cerrar

19.20

x

55