Metal Icarus (Acordes)

Angra

Full Álbum: Fireworks (1998)
Subida por claujavi

Compartir


Cambiar Cifrado
Americano Latino

Cambiar Tonalidad
-1 +1
Imprimir FAQ
+A
-A

Texto

Desplazamiento

Transportador

Color de Fondo

Archivos

Mudar para Português

TONALIDAD, TAMAÑO, CIFRADO, SCROL.

Nos renovamos: Ahora puedes cambiar TODO haciendo clic en ICONO de la Guitarra () que aparece en la parte inferior de esta página.


LETRA CON ACORDES

Intro: G#m7(9)  B  C#m7  E  B  C#m  F#
       G#m7(9)  B  C#m7  E  B  C#m  G#m  F#

Primeira Parte:

G#m7(9)
        You live in a world that is just
           F#11
Way too strange to conceive
                    G#m7(9)
Angels dressed in black

Most of the people who seem to be
 F#11
Lost in the dark
                  C#m7
Are they all too real
                           G#m7(9)
Always a good time, never lonely
C#m7
     Suddenly realized
      B                     F#11
The blood red tears from my eyes
           A9                   E
There was nothing much I could do
               F#11
But watch you die

Refrão:

 G#m7(9)    E9(11)
Time after time
             B    F#4/A#  G#m7(9)  F#11
Burned your wings on the sun
 E   B  C#m  G#m  F#
Me__tal I___car___us

Segunda Parte:

G#m7(9)
        First time I met you I wanted
    F#11
To be at your side
                      G#m7(9)
And let my hair grow long

Those days are gone
                 F#11
And I still fly by night
                      C#m7
Bringing life to the dead

Even through times
             G#m7(9)
When I felt lonely( lonely)
C#m7
     Suddenly realized
      B                     F#11
The blood red tears from my eyes
           A9                   E
There was nothing much I could do
               F#11
But watch you die

Refrão II:

 G#m7(9)    E9(11)
Time after time
             B    F#4/A#  G#m7(9)  F#11
Burned your wings on the sun
 E   B  C#m  G#m  F#
Me__tal I___car___us

 G#m7(9)     E9(11)
Night after night
      B  F#4/A#  G#m7(9)  F#11
Upon forces  unknown
 E   B  C#m  G#m  F#  
Me__tal I___car___us

Final:

G#m7(9)  E9(11)                 G#m7(9)  E9(11)
Ah!             Those were the years
             G#m7(9)       E9(11)
I can still see the windy heights
             G#m7(9)
Against my skin
           F#11
And if I close my eyes
    C#m7
I close my eyes
  F#11        
Close my eyes
                 E  B  C#m7  G#m  F#
I'm flying over hills
                 E  B  C#m7  G#m  F#
I'm flying over hills
             E  B  C#m7  G#m  F#
Flying over hills

Intro:

   G#m7(9)
E|------------------------------------------|
B|-------0-----0----------0-----0-----------|
G|---3-----3-----3----3-----3-----3---------|
D|-----4-----4----------4-----4-------------|
A|------------------------------------------|
E|-4----------------4-----------------------|

   B
E|------------------------------------------|
B|-------4-----4----------4-----4-----------|
G|---4-----4-----4----4-----4-----4---------|
D|-----4-----4----------4-----4-------------|
A|-2----------------2-----------------------|
E|------------------------------------------|

   C#m7
E|------------------------------------------|
B|-------0-----0----------0-----0-----------|
G|---9-----9-----9----9-----9-----9---------|
D|-----11-----11----------11-----11---------|
A|------------------------------------------|
E|-9----------------9-----------------------|

   E    B   C#m   F#
E|-0----2----4----2-------------------------|
B|-0----4----5----2-------------------------|
G|-1----4----6----3-------------------------|
D|-2----4----6----4-------------------------|
A|-2----2----4----4-------------------------|
E|-0--------------2-------------------------|

   G#m7(9)
E|------------------------------------------|
B|-------0-----0----------0-----0-----------|
G|---3-----3-----3----3-----3-----3---------|
D|-----4-----4----------4-----4-------------|
A|------------------------------------------|
E|-4----------------4-----------------------|

   B
E|------------------------------------------|
B|-------4-----4----------4-----4-----------|
G|---4-----4-----4----4-----4-----4---------|
D|-----4-----4----------4-----4-------------|
A|-2----------------2-----------------------|
E|------------------------------------------|

   C#m7
E|------------------------------------------|
B|-------0-----0----------0-----0-----------|
G|---1-----1-----1----1-----1-----1---------|
D|-----2-----2----------2-----2-------------|
A|-4----------------4-----------------------|
E|------------------------------------------|

   E    B   C#m  G#m   F#
E|-0----2----4----4----2--------------------|
B|-0----4----5----4----2--------------------|
G|-1----4----6----4----3--------------------|
D|-2----4----6----6----4--------------------|
A|-2----2----4----6----4--------------------|
E|-0--------------4----2--------------------|

Primeira Parte:

   G#m7(9)  (2x)
E|------------------------------------------|
B|-------0-----0----------0-----0-----------|
G|---3-----3-----3----3-----3-----3---------|
D|-----4-----4----------4-----4-------------|
A|------------------------------------------|
E|-4----------------4-----------------------|

   F#11  (2x)
E|------------------------------------------|
B|-------0-----0----------0-----0-----------|
G|---3-----3-----3----3-----3-----3---------|
D|-----4-----4----------4-----4-------------|
A|------------------------------------------|
E|-2----------------2-----------------------|

   G#m7(9)  (2x)
E|------------------------------------------|
B|-------0-----0----------0-----0-----------|
G|---3-----3-----3----3-----3-----3---------|
D|-----4-----4----------4-----4-------------|
A|------------------------------------------|
E|-4----------------4-----------------------|

   F#11  (2x)
E|------------------------------------------|
B|-------0-----0----------0-----0-----------|
G|---3-----3-----3----3-----3-----3---------|
D|-----4-----4----------4-----4-------------|
A|------------------------------------------|
E|-2----------------2-----------------------|

   C#m7  (2x)
E|------------------------------------------|
B|-------0-----0----------0-----0-----------|
G|---1-----1-----1----1-----1-----1---------|
D|-----2-----2----------2-----2-------------|
A|-4----------------4-----------------------|
E|------------------------------------------|

   G#m7(9)  (2x)
E|------------------------------------------|
B|-------0-----0----------0-----0-----------|
G|---3-----3-----3----3-----3-----3---------|
D|-----4-----4----------4-----4-------------|
A|------------------------------------------|
E|-4----------------4-----------------------|

   C#m7
E|------------------------------------------|
B|-------0-----0----------0-----0-----------|
G|---1-----1-----1----1-----1-----1---------|
D|-----2-----2----------2-----2-------------|
A|-4----------------4-----------------------|
E|------------------------------------------|

   E
E|------------------------------------------|
B|-------0-----0----------0-----0-----------|
G|---4-----4-----4----4-----4-----4---------|
D|-----6-----6----------6-----6-------------|
A|-7----------------7-----------------------|
E|------------------------------------------|

   B
E|------------------------------------------|
B|-------4-----4----------4-----4-----------|
G|---4-----4-----4----4-----4-----4---------|
D|-----4-----4----------4-----4-------------|
A|-2----------------2-----------------------|
E|------------------------------------------|

   F#11
E|------------------------------------------|
B|-------0-----0----------0-----0-----------|
G|---3-----3-----3----3-----3-----3---------|
D|-----4-----4----------4-----4-------------|
A|------------------------------------------|
E|-2----------------2-----------------------|

   A9
E|------------------------------------------|
B|-------0-----0-----------0-----0----------|
G|---6-----6-----6-----6-----6-----6--------|
D|-----7-----7-----------7-----7------------|
A|------------------------------------------|
E|-5----------------5-----------------------|

   E
E|------------------------------------------|
B|-------0-----0----------0-----0-----------|
G|---1-----1-----1----1-----1-----1---------|
D|-----2-----2----------2-----2-------------|
A|------------------------------------------|
E|-0----------------0-----------------------|

   F#11  (2x)
E|------------------------------------------|
B|-------0-----0----------0-----0-----------|
G|---3-----3-----3----3-----3-----3---------|
D|-----4-----4----------4-----4-------------|
A|------------------------------------------|
E|-2----------------2-----------------------|

Refrão:

   G#m7(9)
E|------------------------------------------|
B|-------0-----0----------0-----0-----------|
G|---3-----3-----3----3-----3-----3---------|
D|-----4-----4----------4-----4-------------|
A|------------------------------------------|
E|-4----------------4-----------------------|

   E9(11)
E|------------------------------------------|
B|-------0-----0----------0-----0-----------|
G|---3-----3-----3----3-----3-----3---------|
D|-----4-----4----------4-----4-------------|
A|------------------------------------------|
E|-0----------------0-----------------------|

   B                F#4/A#
E|------------------------------------------|
B|-------0-----0----------0-----0-----------|
G|---8-----8-----8----6-----6-----6---------|
D|-----9-----9----------4-----4-------------|
A|------------------------------------------|
E|-7----------------6-----------------------|

   G#m7(9)          F#11
E|------------------------------------------|
B|-------0-----0----------0-----0-----------|
G|---3-----3-----3----3-----3-----3---------|
D|-----4-----4----------4-----4-------------|
A|------------------------------------------|
E|-4----------------2-----------------------|

   E                B
E|------------------------------------------|
B|-------0-----0----------4----4------------|
G|---1-----1-----1----4-----4----4----------|
D|-----2-----2----------4-----4-------------|
A|------------------2-----------------------|
E|-0----------------------------------------|

   C#m              F#m
E|------------------------------------------|
B|-------5-----5----------4-----4-----------|
G|---6-----6-----6----4-----4-----4---------|
D|-----6-----6----------6-----6-------------|
A|-2----------------------------------------|
E|------------------4-----------------------|

   F#11
E|------------------------------------------|
B|-------0-----0----------0-----0-----------|
G|---3-----3-----3----3-----3-----3---------|
D|-----4-----4----------4-----4-------------|
A|------------------------------------------|
E|-2----------------2-----------------------|

Segundo Refrão:

   
E|------------------------------------------|
B|-------2-----2----------2-----2-----------|
G|---3-----3-----3----3-----3-----3---------|
D|-----2-----2----------2-----2-------------|
A|------------------------------------------|
E|-3----------------3-----------------------|

Terceira Parte:

   G#m7(9)
E|------------------------------------------|
B|-------0-----0----------0-----0-----------|
G|---3-----3-----3----3-----3-----3---------|
D|-----4-----4----------4-----4-------------|
A|------------------------------------------|
E|-4----------------4-----------------------|

   E9(11)
E|------------------------------------------|
B|-------0-----0----------0-----0-----------|
G|---3-----3-----3----3-----3-----3---------|
D|-----4-----4----------4-----4-------------|
A|------------------------------------------|
E|-0----------------0-----------------------|

   G#m7(9)
E|------------------------------------------|
B|-------0-----0----------0-----0-----------|
G|---3-----3-----3----3-----3-----3---------|
D|-----4-----4----------4-----4-------------|
A|------------------------------------------|
E|-4----------------4-----------------------|

   E9(11)
E|------------------------------------------|
B|-------0-----0----------0-----0-----------|
G|---3-----3-----3----3-----3-----3---------|
D|-----4-----4----------4-----4-------------|
A|------------------------------------------|
E|-0----------------0-----------------------|

   G#m7(9)
E|------------------------------------------|
B|-------0-----0----------0-----0-----------|
G|---3-----3-----3----3-----3-----3---------|
D|-----4-----4----------4-----4-------------|
A|------------------------------------------|
E|-4----------------4-----------------------|

   E9(11)
E|------------------------------------------|
B|-------0-----0----------0-----0-----------|
G|---3-----3-----3----3-----3-----3---------|
D|-----4-----4----------4-----4-------------|
A|------------------------------------------|
E|-0----------------0-----------------------|

   G#m7(9)
E|------------------------------------------|
B|-------0-----0----------0-----0-----------|
G|---3-----3-----3----3-----3-----3---------|
D|-----4-----4----------4-----4-------------|
A|------------------------------------------|
E|-4----------------4-----------------------|

   F#11  (2x)
E|------------------------------------------|
B|-------0-----0----------0-----0-----------|
G|---3-----3-----3----3-----3-----3---------|
D|-----4-----4----------4-----4-------------|
A|------------------------------------------|
E|-2----------------2-----------------------|

   C#m7  (2x)
E|------------------------------------------|
B|-------0-----0----------0-----0-----------|
G|---1-----1-----1----1-----1-----1---------|
D|-----2-----2----------2-----2-------------|
A|-4----------------4-----------------------|
E|------------------------------------------|

   F#11
E|------------------------------------------|
B|-------0-----0----------0-----0-----------|
G|---3-----3-----3----3-----3-----3---------|
D|-----4-----4----------4-----4-------------|
A|------------------------------------------|
E|-2----------------2-----------------------|

   
E|------------------------------------------|
B|-------2-----2----------2-----2-----------|
G|---3-----3-----3----3-----3-----3---------|
D|-----2-----2----------2-----2-------------|
A|------------------------------------------|
E|-3----------------3-----------------------|

   E    B   C#m  G#m   F#
E|-0----2----4----4----2--------------------|
B|-0----4----5----4----2--------------------|
G|-1----4----6----4----3--------------------|
D|-2----4----6----6----4--------------------|
A|-2----2----4----6----4--------------------|
E|-0--------------4----2--------------------|

   E    B   C#m  G#m   F#
E|-0----2----4----4----2--------------------|
B|-0----4----5----4----2--------------------|
G|-1----4----6----4----3--------------------|
D|-2----4----6----6----4--------------------|
A|-2----2----4----6----4--------------------|
E|-0--------------4----2--------------------|

   E    B   C#m  G#m   F#
E|-0----2----4----4----2--------------------|
B|-0----4----5----4----2--------------------|
G|-1----4----6----4----3--------------------|
D|-2----4----6----6----4--------------------|
A|-2----2----4----6----4--------------------|
E|-0--------------4----2--------------------|

Video Clip de Metal Icarus


ACORDES PARA GUITARRA

PIANO UKELELE
G#m9
B
C#m7
E
C#m
F#
G#m
F#11
A9
Gdim
F#m


TOP 20: Las más tocadas de Angra


Toca una Canción al Azar de Angra

Acordes

Cerrar
G#m9
B
C#m7
E
C#m
F#
G#m
F#11
A9
Gdim
F#m

11.36

x

105