Gentle Change (Acordes)

Angra

Full Álbum: Fireworks (1998)
Subida por Carolina88

Compartir


Cambiar Cifrado
Americano Latino

Cambiar Tonalidad
-1 +1
Imprimir FAQ
+A
-A

Texto

Desplazamiento

Transportador

Color de Fondo

Archivos

Mudar para Português

TONALIDAD, TAMAÑO, CIFRADO, SCROL.

Nos renovamos: Ahora puedes cambiar TODO haciendo clic en ICONO de la Guitarra () que aparece en la parte inferior de esta página.


LETRA CON ACORDES

Introdução:

E|-------7p0--------------7p0-------------------------|
B|-----0-----0---0------0-----0---0-------------------|
G|-8h9---------9----8h9---------9---------------------|
D|----------------------------------------------------|
A|----------------------------------------------------|
E|-0--------------------------------------------------|

E|-------7p0--------------7p0-------------------------|
B|-----0-----0---0------0-----0---0-------------------|
G|-8h9---------9----8h9---------9---------------------|
D|----------------------------------------------------|
A|----------------------------------------------------|
E|----------------------------------------------------|

Primeira Parte:

I see the stars in your eyes
Portraying my face in the future
Nice is the weather outside
But I'll stay at home
Oh, waiting for the rain

Memories of when we were young
Wishing so bad to be older
Now you may look to the past
The only way forward

E|-------7p0---------------9p0------------------------|
B|-----0-----0---0-------0-----0----0-----------------|
G|-8h9---------9----9/11---------11-------------------|
D|----------------------------------------------------|
A|----------------------------------------------------|
E|-0--------------------------------------------------|

E|---------12p0-----------------12p0------------------|
B|-------0------0----0--------0------0----0-----------|
G|-11/13----------13----11h13----------13-------------|
D|----------------------------------------------------|
A|----------------------------------------------------|
E|----------------------------------------------------|

E|-------7p0---------------9p0---------0--------------|
B|-----0-----0---0-------0-----0---------0---0--------|
G|-8h9---------9----9/11---------9p8-7-----6----------|
D|----------------------------------------------------|
A|----------------------------------------------------|
E|-0--------------------------------------------------|

E|---------------0------------------------------------|
B|-------------0--------------------------------------|
G|-6h8p64h6p4----------------------------------------|
D|----------------------------------------------------|
A|----------------------------------------------------|
E|----------------------------------------------------|

E|-------7p0---------------9p0------------------------|
B|-----0-----0---0-------0-----0----0-----------------|
G|-8h9---------9----9/11---------11-------------------|
D|----------------------------------------------------|
A|----------------------------------------------------|
E|-0--------------------------------------------------|

E|---------12p0-----------------12p0------------------|
B|-------0------0----0--------0------0----0-----------|
G|-11/13----------13----11h13----------13-------------|
D|----------------------------------------------------|
A|----------------------------------------------------|
E|----------------------------------------------------|

E|-------7p0---------------9p0------------------------|
B|-----0-----0---0-------0-----0----0-----------------|
G|-8h9---------9----9/11---------11-------------------|
D|----------------------------------------------------|
A|----------------------------------------------------|
E|-0--------------------------------------------------|

E|-------7p0--------------7p0-------------------------|
B|-----0-----0---0------0-----0---0-------------------|
G|-8h9---------9----8h9---------9---------------------|
D|----------------------------------------------------|
A|----------------------------------------------------|
E|-0--------------------------------------------------|

(2x)

E|--------------0-------------------------------------|
B|------10------------10------------------------------|
G|---------9-------------9----------------------------|
D|---11------11----11------10-------------------------|
A|-0--------------------------------------------------|
E|----------------------------------------------------|

E|-------7p0--------------7p0-------------------------|
B|-----0-----0---0------0-----0---0-------------------|
G|-8h9---------9----8h9---------9---------------------|
D|----------------------------------------------------|
A|----------------------------------------------------|
E|-0--------------------------------------------------|

E|-------7p0--------------7p0-------------------------|
B|-----0-----0---0------0-----0---0-------------------|
G|-8h9---------9----8h9---------9---------------------|
D|----------------------------------------------------|
A|----------------------------------------------------|
E|----------------------------------------------------|

Segunda Parte (Pré-refrão):

C#m7                       B4
     Lightning up another cigarrette
  A9                              E   B11/D#
Playing cool while cracking up inside
 C#m7                       B4
Saying hi to people's like saying goodbye
 A9            B4
Laughing, but wishing to cry

Segunda Parte:

   C#m7                 B4
E|-----------0--------------------0---------|
B|-----0---------0----------0---------0-----|
G|-------6---------6----------4---------4---|
D|---6-----6---6-----6----4-----4---4-----4-|
A|-4--------------------2-------------------|
E|------------------------------------------|

   A9                   E             B11/D#
E|-----------0--------------------0---0-----|
B|-----0---------0----------0---------8-----|
G|-------2---------2----------1-------8-----|
D|---2-----2---2-----2----2-----2-----9-----|
A|-0----------------------------------6-----|
E|----------------------0-------------------|

   C#m7                 B4
E|-----------0--------------------0---------|
B|-----0---------0----------0---------0-----|
G|-------6---------6----------4---------4---|
D|---6-----6---6-----6----4-----4---4-----4-|
A|-4--------------------2-------------------|
E|------------------------------------------|

   A9         B4
E|------------------------------------------|
B|-----0----------0-------------------------|
G|-------2----------4-----------------------|
D|---2-----2----4-----4---7h9-7p6-----------|
A|-0----------2-------------------7---------|
E|--------------------------------0---------|

Refrão:

                  A    E/G#  F#m
Gentle change of tides
E         D   A/C#
Upcoming days
B7         G#          C#m  B   A
Oh,    the spirits of a new  ho__rizon fall
B
Into old dreams

Refrão:
   A        E/G#     F#m      E
E|---x--------x--------x--------x-----------|
B|---x-2------x-5------x-2------x-0---------|
G|---x-2------x-4------x-2------x-1---------|
D|---x-2------x-2------x-4------x-2---------|
A|-0-x---0----x--------x--------x-----------|
E|---x------4-x---4--2-x---2--0-x---0-------|

   D        A/C#     B7       
E|---x--------x--------x--------x-----------|
B|---x-3------x-5------x-4------x-4---------|
G|---x-2------x-2------x-2------x-5---------|
D|---x-4------x-2------x-4------x-4---------|
A|-5-x---5--4-x---4--2-x---2----x-----------|
E|---x--------x--------x------5-x---5-------|

   G#      C#m  B   A   B
E|---x------4---2---0---2-------------------|
B|---x-4----5---4---2---4-------------------|
G|---x-5----6---4---2---4-------------------|
D|---x-6----6---4---2---4-------------------|
A|---x------4---2---0---2-------------------|
E|-4-x---4----------------------------------|

   G#      C#m  B   A   B
E|---x------4---2---0---2-------------------|
B|---x-4----5---4---2---4-------------------|
G|---x-5----6---4---2---4-------------------|
D|---x-6----6---4---2---4-------------------|
A|---x------4---2---0---2-------------------|
E|-4-x---4----------------------------------|

Interlúdio:

A  E/A  D7M  C#m/D
Am7  D/A  A4  G4/A  G

Terceira Parte:

  E            B11/D#          C#m7
Standing here howling at the storm
  A           B7            E      A  B
Shouting how life could be perfect
 E              B11/D#        C#m7
Well, then the walls have to fall
A      B
  To start it again

Refrão Final:

                  A    E/G#  F#m
Gentle change of tides
E         D   A/C#
Upcoming days
B7         G#          C#m  B   A
Oh,    the spirits of a new  ho__rizon fall
B          C#m  E/D
Into old dreams

               A     E/G#  F#m
Far away from sights
     E             D   A/C#
Oh, hidden in the haze
B7      G#          C#m  B   A
Oh, oh, spirits of a new  ho__rizon fall
   B
Into old dreams

Video Clip de Gentle Change


ACORDES PARA GUITARRA

PIANO UKELELE
C#m7
B4
A9
E
B11/D#
A
E/G#
F#m
D
A/C#
B7
Adim
G#
C#m
B
E/A
Dmaj7
C#m/D
Am7
D/A
A4
G
E/D


TOP 20: Las más tocadas de Angra


Toca una Canción al Azar de Angra

Acordes

Cerrar
C#m7
B4
A9
E
B11/D#
A
E/G#
F#m
D
A/C#
B7
Adim
G#
C#m
B
E/A
Dmaj7
C#m/D
Am7
D/A
A4
G
E/D

18.23

x

125