Compartir


Cambiar Cifrado
Americano Latino

Cambiar Tonalidad
-1 +1
Imprimir FAQ
+A
-A

Texto

Desplazamiento

Transportador

Color de Fondo

Archivos

Mudar para Português

TONALIDAD, TAMAÑO, CIFRADO, SCROL.

Nos renovamos: Ahora puedes cambiar TODO haciendo clic en ICONO de la Guitarra () que aparece en la parte inferior de esta página.


LETRA CON ACORDES

  
    E E E E E E E E   E E E E E E E E   E E E E E E E E   E E E E E E E E
||--------------------------------------------------0--------------------------------|
||o--------------------------------------------------4-------------------------------|
||----9-9-9-6-6-6-----13-13-13-13--7/6--4/6-2---2/4----------------------------------|
||----7-7-7-8-8-8-----11-11-11-11--9/8--2/4-2----------9--11/13-11-11-15/14-13-7-7/11|
||o---0-0-0-0-0-0--------------------------------------7--9-/11-9--9--13/12-11-9-9/9-|
||-----------------------------------------------------------------------------------|

||--------------------------------------------------0--------------------------------|
||o--------------------------------------------------4-------------------------------|
||----9-9-9-6-6-6-----13-13-13-13--7/6--4/6-2---2/4----------------------------------|
||----7-7-7-8-8-8-----11-11-11-11--9/8--2/4-2----------9--11/13-11-11-14-11-16-18-19-|
||o---0-0-0-0-0-0--------------------------------------7--9-/11-9--9--12-9--14-16-17-|
||-----------------------------------------------------------------------------------|


BASE DO PRIMEIRO SOLO

E B F# F

SEGUNDA PARTE DA INTRO

A,D,F#,B,A,E,A,D

Dawning time 
Lights a new beginning 
On the shadows of your eyes 
Hurts inside 
Wounded heart is healing 
After all you will survive

All the time I was lost in the desert 

B
Counting what was left from the
Illusions in my mind 

G
Hopeless fights
         E  
Foolish thoughts we were in heaven 
         B
till we die, oh!    (F,D
B
Death will bring us back 
where we belong (F,D)
B
Now you must decide before the 
C       A                  G
Dawn is brightening up the day 
F#                B
Announcing in the sky 
       E      C#   
the Morning Star
A             D
Nothing left to loose 
     F#            B
I am going on my way tonight 

On my way and...
A               D
Shouting to the moon 
          F#           B           E
I'll be roaming till I find the Morning 
  A
Star - Oh!!! 
A                   D
Another chance you waste 
         F#          B
I'm the owner of my days 
         A                  E
I'll be howling through the night till 
     A       D
the end of time

ESSA PARTE TEM UMAS VARIAÇÕES O DESENHO DELA É ASSIM(ABAIXO) ELA NAUM É DE DIFICIL EXECUÇÃO 
ESPERO QUE COM ESSA PARTE VC´S TIREM AS VARIAÇÕES DELA.

PARTE X
||-----------------------------------------------------------------------------------|
||o----------------------------------------------------------------------------------|
||-----------------------------------------------------------------------------------|
||-------------------------------------------------------------------------2-3-4-----|
||o----XXXXXXX-3/2-XXXXXX-5/4--3/2--XXXXXXX-3/2-XXXXXX-5/4--3/2------2-3-4-----------|
||-1/0-XXXXXXX-1/0-XXXXXX-3/2--1/0--XXXXXXX-1/0-XXXXXX-3/2--1/0---2-5----------------|

Look out!


SOLO: DUETO MAIS SÓ TO ESCREVENDO só a guitarra de rafael
                         A  2x                       B 2x
|--10-5-10-5----------10-5-10-5----------;-8-5-8-5--------8-5-8-5--------------
|-----------10-5-10-5----------10-5-10-5-;---------6-5-6-5--------6-5-6-5------
|----------------------------------------;-------------------------------------
|----------------------------------------;-------------------------------------
|----------------------------------------;-------------------------------------
|----------------------------------------;-------------------------------------

           C    2x                  repete A           D
-6-5-6-5---------6-5-6-5---------;-----------;-----------------------------------------10---
---------6-5-6-5--------6-5-6-5--;-----------;--------------------------------------11------
---------------------------------;-----------;--------------------10--------------10--------
---------------------------------;-----------;------------8-12-14----14-12-8-12-14----------
---------------------------------;-----------;----------8-----------------------------------
---------------------------------;-----------;--6-10-12-------------------------------------

-12-13-12-10----------------------10------;-10-5-10-5--------10-5-10-5-------------
------------11---------------10-13--13-10-;----------------------------------------
--------------10-----------10-------------;-----------7-5-7-7----------7-5-7-7-----
-----------------14-12-8-12---------------;----------------------------------------
------------------------------------------;----------------------------------------
------------------------------------------;----------------------------------------

                                            repete D
-12-8-12-8-------------12-8-12-8-----------;--------;-13-8-13-8-----------13-8-13-8------------
-------------------------------------------;--------;------------------------------------------
------------10-9-10-10-----------10-9-10-10;--------;-----------10-9-10-10----------10-9-10-10-
-------------------------------------------;--------;------------------------------------------
-------------------------------------------;--------;------------------------------------------
-------------------------------------------;--------;------------------------------------------

-17-13-17-13------------17-13-17-13--------------------5-6-5-------5-6----------6-8-6---
-----------------------------------------------------6------6-----6----6-------8-----8--
------------14-12-14-14------------14-12-14-14---3-7---------7-3-7------7---5-9-------9-
----------------------------------------------------------------------------------------
----------------------------------------------------------------------------------------
----------------------------------------------------------------------------------------

------6-8-6------------8-10-8-----------8-10-8----------10-12-10-----------10-12-10------------;
-----8-----8--------10-------10-------10--------------11--------11-------11--------11----------;
-5-9---------9--7-10-----------10-7-10------------9-12------------12-9-12------------12--9-----;
-----------------------------------------------------------------------------------------------;
-----------------------------------------------------------------------------------------------;
-----------------------------------------------------------------------------------------------;

SOLO DO KIKO:
                                        segure o bend    |toque sem descer a corda|       
|-15-------15-------17------17----------17---------------17--17---17---17---17---17---17--17--17
|-18b(20)--18b(20)--20b(22)-20b(22)-----20b(22)----------20b(22)-(22)-(22)-(22)-(22)--20--20--20
|-----------------------------------------------------------------------------------------------
|-----------------------------------------------------------------------------------------------
|-----------------------------------------------------------------------------------------------
|-----------------------------------------------------------------------------------------------
        
------18~~~~~~18-17-15-14-15-17-15-13-11-----------------------------;
----------------------------------------15-13-12---------------------;
--/14-------------------------------------------15-14-12-----12~~~~--;
---------------------------------------------------------15----------;
---------------------------------------------------------------------;
---------------------------------------------------------------------;

SOLO DO RAFAEL

|------------------------------~-------------------------------------------------15---17---18-17-
|-----------------------------------13----15---16---18b(full)---15--18~~~~-11/13---13---13-------
|-14b(1/2)--14b(1/2)--12~~~---10/12----12---12---12----------------------------------------------
|------------------------------------------------------------------------------------------------
|------------------------------------------------------------------------------------------------
|------------------------------------------------------------------------------------------------
 T  _____________T_________T_____T____________________        _____________T_____T______________T_
-18-17-15-13-15--20-15-17-18-17-18-17-15---------------13-----------15--20-22-20-22-20-18-15-18-20
----------------------------------------18-16-15-13-15----13--15-18-------------------------------
--------------------------------------------------------------------------------------------------
--------------------------------------------------------------------------------------------------
--------------------------------------------------------------------------------------------------
--------------------------------------------------------------------------------------------------
__________T___________
-18----------------------------------------------------------------------------------------;
----16-18-20-18-15-13---18b(full)--18-15--------15-----------------------------------------;
-----------------------------------------17-15-----17-15-----17-15-------------------------;
----------------------------------------------17--------17-15-----17-15-----------H.A|------;
-----------------------------------------------------------------------17-15-13---17~~~~~~-;
-------------------------------------------------------------------------------------------;

Peguei o solo de ouvido mais está muito bem pego,só é ruim de escrever aqui,mais escrevi no guitar pro e fica melhor de tirar..se quiser contato, aqui está meu MSN: [email protected]
tablaturas dos solos do angra,no gravity eu tenho quase tudo.entre outros materiais, flws um abraço!



PARTE ANTES DO SOLO
D,Bb
G,Eb

INICIO DO SOLO
PARTE X
Eb,F,G

Eb               D    C           
All this time I was lost in the desert 
PARTE X
Got to get away!(F,D)
B 
Now I must decide before the 
C       A                   G
Dawn is brightening up the day 
   F#             B
Announcing in the sky 
     E       C#
the Morning Star!
                   D
Nothing left to loose 
     F#           B
I am going on my way tonight 
On my way and... 
A                D 
Silent like the moon 
       F#              B        E  
I will wonder till I find the Morning 
  A
Star - Oh no!!! 
  A                 D
Another chance you waste 
          F#           B
Cause I'm going on my way tonight 
On my way and...
  A              D
Shouting to the stars
        F#          B 
I'm the owner of my days 
         A                  E     A 
I'll be howling through the night till 
            D
the end of time. Oh! 
End of time! 
Shouting to the stars!

Video Clip de Morning Star


ACORDES PARA GUITARRA

PIANO UKELELE
E
B
F#
F
A
D
G
C
C#
Bb
Eb


TOP 20: Las más tocadas de Angra


Toca una Canción al Azar de Angra

Acordes

Cerrar
E
B
F#
F
A
D
G
C
C#
Bb
Eb

22.46

x

321