Never Understand (Acordes)

Angra

Full Álbum: Angels Cry (1993)
Subida por jesussimba

Compartir


Cambiar Cifrado
Americano Latino

Cambiar Tonalidad
-1 +1
Imprimir FAQ
+A
-A

Texto

Desplazamiento

Transportador

Color de Fondo

Archivos

Mudar para Português

TONALIDAD, TAMAÑO, CIFRADO, SCROL.

Nos renovamos: Ahora puedes cambiar TODO haciendo clic en ICONO de la Guitarra () que aparece en la parte inferior de esta página.


LETRA CON ACORDES

Guitar 1: Kiko Loureiro

      E  E   E   E  E  E  E  E     S  S E  S  S E  E  E  S  S E   
E||-----------------------------|--------------------------------|
B||--12-----10------9-----7-----|----------9p-7----7-------------|
G||------9------11-----9-----9--|--7h-9-9-------9-----9--7S-9-9--|
D||-----------------------------|--------------------------------|
A||-----------------------------|--------------------------------|
E||-----------------------------|--------------------------------|

   E  E   E   E  E  E  E  E     S  S E  S  S E  E  E  S  S E   
-----------------------------|--------------------------------|
--12-----10------9-----7-----|----------9p-7----7-------------|
------9------11-----9-----9--|--7h-9-9-------9-----9--7S-9-9--|
-----------------------------|--------------------------------|
-----------------------------|--------------------------------|
-----------------------------|--------------------------------|

   E  E   E   E  E  E  E  E     S  S E  S  S E  E  E  S  S E   
-----------------------------|--------------------------------|
--12-----10------9-----7-----|----------9p-7----7-------------|
------9------11-----9-----9--|--7h-9-9-------9-----9--7S-9-9--|
-----------------------------|--------------------------------|
-----------------------------|--------------------------------|
-----------------------------|--------------------------------|

   E  E   E   E  E  E  E  E     S  S E  S  S E  E  E  S  S E   
-----------------------------|--------------------------------|
--12-----10------9-----7-----|----------9p-7----7-------------|
------9------11-----9-----9--|--7h-9-9-------9-----9--7S-9-9--|
-----------------------------|--------------------------------|
-----------------------------|--------------------------------|
-----------------------------|--------------------------------|

   E  E   E   E  E  E  E  E     S  S E  S  S E  E  E  S  S E   
-----------------------------|--------------------------------|
--12-----10------9-----7-----|----------9p-7----7-------------|
------9------11-----9-----9--|--7h-9-9-------9-----9--7S-9-9--|
-----------------------------|--------------------------------|
-----------------------------|--------------------------------|
-----------------------------|--------------------------------|

   E  E   E   E  E  E  E  E     S  S E  S  S E  E  E  S  S E   
-----------------------------|--------------------------------|
--12-----10------9-----7-----|----------9p-7----7-------------|
------9------11-----9-----9--|--7h-9-9-------9-----9--7S-9-9--|
-----------------------------|--------------------------------|
-----------------------------|--------------------------------|
-----------------------------|--------------------------------|

   E  E   E   E  E  E  E  E     S  S E  S  S E  E  E  S  S E   
-----------------------------|--------------------------------|
--12-----10------9-----7-----|----------9p-7----7-------------|
------9------11-----9-----9--|--7h-9-9-------9-----9--7S-9-9--|
-----------------------------|--------------------------------|
-----------------------------|--------------------------------|
-----------------------------|--------------------------------|

   E  E   E   E  E  E  E  E     S  S E  S  S E  E  E  S  S E   
-----------------------------|--------------------------------|
--12-----10------9-----7-----|----------9p-7----7-------------|
------9------11-----9-----9--|--7h-9-9-------9-----9--7S-9-9--|
-----------------------------|--------------------------------|
-----------------------------|--------------------------------|
-----------------------------|--------------------------------|

   E  E   E   E  E  E  E  E     S  S E  S  S E  E  E  S  S E   
-----------------------------|--------------------------------|
--12-----10------9-----7-----|----------9p-7----7-------------|
------9------11-----9-----9--|--7h-9-9-------9-----9--7S-9-9--|
-----------------------------|--------------------------------|
-----------------------------|--------------------------------|
-----------------------------|--------------------------------|

   E  E   E   E  E  E  E  E     S  S E  S  S E  E  E  S  S E   
-----------------------------|--------------------------------|
--12-----10------9-----7-----|----------9p-7----7-------------|
------9------11-----9-----9--|--7h-9-9-------9-----9--7S-9-9--|
-----------------------------|--------------------------------|
-----------------------------|--------------------------------|
-----------------------------|--------------------------------|

   E  E   E   E  E  E  E  E     S  S E  S  S E  E  E  S  S E   
-----------------------------|--------------------------------|
--12-----10------9-----7-----|----------9p-7----7-------------|
------9------11-----9-----9--|--7h-9-9-------9-----9--7S-9-9--|
-----------------------------|--------------------------------|
-----------------------------|--------------------------------|
-----------------------------|--------------------------------|

   E  E   E   E  E  E  E  E     S  S E  S  S E  E  E  S  S E   
-----------------------------|--------------------------------|
--12-----10------9-----7-----|----------9p-7----7-------------|
------9------11-----9-----9--|--7h-9-9-------9-----9--7S-9-9--|
-----------------------------|--------------------------------|
-----------------------------|--------------------------------|
-----------------------------|--------------------------------|

  W                   W                   W                   W                 
--0----------------|-------------------|-------------------|-------------------|
--x----------------|-------------------|-------------------|-------------------|
--9----------------|-------------------|-------------------|-------------------|
-------------------|-------------------|-------------------|-------------------|
-------------------|-------------------|-------------------|-------------------|
-------------------|-------------------|-------------------|-------------------|

  W                   W                   W                   W                 
-------------------|-------------------|-------------------|-------------------|
-------------------|-------------------|-------------------|-------------------|
-------------------|-------------------|-------------------|-------------------|
-------------------|-------------------|-------------------|-------------------|
-------------------|-------------------|-------------------|-------------------|
-------------------|-------------------|-------------------|-------------------|

  W                   W                   W                   W                 
-------------------|-------------------|-------------------|-------------------|
-------------------|-------------------|-------------------|-------------------|
-------------------|-------------------|-------------------|-------------------|
-------------------|-------------------|-------------------|-------------------|
-------------------|-------------------|-------------------|-------------------|
-------------------|-------------------|-------------------|-------------------|

  W                   W                   W                   W                 
-------------------|-------------------|-------------------|-------------------|
-------------------|-------------------|-------------------|-------------------|
-------------------|-------------------|-------------------|-------------------|
-------------------|-------------------|-------------------|-------------------|
-------------------|-------------------|-------------------|-------------------|
-------------------|-------------------|-------------------|-------------------|


  W                   W                   W                   W                 
-------------------|-------------------|-------------------|-------------------|
-------------------|-------------------|-------------------|-------------------|
-------------------|-------------------|-------------------|-------------------|
-------------------|-------------------|-------------------|-------------------|
-------------------|-------------------|-------------------|-------------------|
-------------------|-------------------|-------------------|-------------------|


  W                   W                   W                   W                 
-------------------|-------------------|-------------------|-------------------|
-------------------|-------------------|-------------------|-------------------|
-------------------|-------------------|-------------------|-------------------|
-------------------|-------------------|-------------------|-------------------|
-------------------|-------------------|-------------------|-------------------|
-------------------|-------------------|-------------------|-------------------|


  W                   W                   W                   W                 
-------------------|-------------------|-------------------|-------------------|
-------------------|-------------------|-------------------|-------------------|
-------------------|-------------------|-------------------|-------------------|
-------------------|-------------------|-------------------|-------------------|
-------------------|-------------------|-------------------|-------------------|
-------------------|-------------------|-------------------|-------------------|


  W                   W                   W                 
-------------------|-------------------|-------------------|
-------------------|-------------------|-------------------|
-------------------|-------------------|-------------------|
-------------------|-------------------|-------------------|
-------------------|-------------------|-------------------|
-------------------|-------------------|-------------------|

  H        Q    E  E      E  E   E   E  E  E  E  E   
----------------------|-----------------------------|
----------------------|--12-----10------9-----7-----|
-------------------9--|------9------11-----9-----9--|
----------------------|-----------------------------|
----------------------|-----------------------------|
----------------------|-----------------------------|

  S  S E  S  S E  E  E  S  S E      E  E   E   E  E  E  E  E   
--------------------------------|-----------------------------|
----------9p-7----7-------------|--12-----10------9-----7-----|
--7h-9-9-------9-----9--7S-9-9--|------9------11-----9-----9--|
--------------------------------|-----------------------------|
--------------------------------|-----------------------------|
--------------------------------|-----------------------------|

  S  S E  S  S E  E  S S S S E      E  E   E   E  E  E  E  E   
-----------------------0---0----|-----------------------------|
----------9p-7----7-------------|--12-----10------9-----7-----|
--7h-9-9-------9-----9---7---9--|------9------11-----9-----9--|
--------------------------------|-----------------------------|
--------------------------------|-----------------------------|
--------------------------------|-----------------------------|

  S  S E  S  S E  E  E  S  S E      E  E   E   E  E  E  E  E   
--------------------------------|-----------------------------|
----------9p-7----7-------------|--12-----10------9-----7-----|
--7h-9-9-------9-----9--7S-9-9--|------9------11-----9-----9--|
--------------------------------|-----------------------------|
--------------------------------|-----------------------------|
--------------------------------|-----------------------------|


                                   Tempo Change                          
  S  S E  S  S E  E  E  S  S E     W                   W                 
--------------------------------|-------------------|-------------------|
----------9p-7----7-------------|-------------------|-------------------|
--7h-9-9-------9-----9--7S-9-9--|-------------------|-------------------|
--------------------------------|-------------------|-------------------|
--------------------------------|-------------------|-------------------|
--------------------------------|-------------------|-------------------|


                                          Tempo Change                          
  W                   W                   W                   W                 
-------------------|-------------------|--0----------------|--7----------------|
-------------------|-------------------|--x----------------|--x----------------|
-------------------|-------------------|--1----------------|--7----------------|
-------------------|-------------------|-------------------|-------------------|
-------------------|-------------------|-------------------|-------------------|
-------------------|-------------------|-------------------|-------------------|


  W                   W                   W                   W                 
--6----------------|--5----------------|--4----------------|--3----------------|
--x----------------|--x----------------|--x----------------|--x----------------|
--6----------------|--5----------------|--4----------------|--3----------------|
-------------------|-------------------|-------------------|-------------------|
-------------------|-------------------|-------------------|-------------------|
-------------------|-------------------|-------------------|-------------------|


  W                   W                   W                   W                 
--2----------------|--L----------------|--0----------------|--7----------------|
--x----------------|--L----------------|--x----------------|--x----------------|
--2----------------|--L----------------|--1----------------|--7----------------|
-------------------|-------------------|-------------------|-------------------|
-------------------|-------------------|-------------------|-------------------|
-------------------|-------------------|-------------------|-------------------|


  W                   W                   W                   W                 
--6----------------|--5----------------|--4----------------|--3----------------|
--x----------------|--x----------------|--x----------------|--x----------------|
--6----------------|--5----------------|--4----------------|--3----------------|
-------------------|-------------------|-------------------|-------------------|
-------------------|-------------------|-------------------|-------------------|
-------------------|-------------------|-------------------|-------------------|


                                          Tempo Change      
  W                   W                   W                 
--2----------------|--L----------------|-------------------|
--x----------------|--L----------------|--9----------------|
--2----------------|--L----------------|--9----------------|
-------------------|-------------------|--9----------------|
-------------------|-------------------|--7----------------|
-------------------|-------------------|-------------------|


  H.           Q       W                   W                 
--------------------|-------------------|-------------------|
--L------------7----|--L----------------|--L----------------|
--L------------7----|--L----------------|--L----------------|
--L------------7----|--L----------------|--L----------------|
--L------------7----|--L----------------|--L----------------|
--------------------|-------------------|-------------------|


   W                   H.           Q       W                 
--------------------|--------------------|-------------------|
--------------------|--------------------|-------------------|
--11----------------|--L------------6----|--L----------------|
--11----------------|--L------------6----|--L----------------|
---9----------------|--L------------4----|--L----------------|
--------------------|--------------------|-------------------|


  W                   E  E  E  E  E  E  Q       Q    Q    H         
-------------------|--------------------4----|--L----4----2--------|
-------------------|--------------------3----|--L----3----3--------|
--L----------------|--0--0--0--0--0--0--2----|--L----2----2--------|
--L----------------|-------------------------|---------------------|
--L----------------|-------------------------|---------------------|
-------------------|-------------------------|---------------------|

  E  E  E  E  E  E  Q       Q    Q    H           E  E  E  E  E  E  E  E   
--------------------4----|--L----4----2--------|--------------------------|
--------------------2----|--L----2----2--------|--------------------------|
--------------------2----|--L----2----2--------|--------------------------|
-------------------------|---------------------|--------------------------|
--0--0--0--0--0--0-------|---------------------|--2--2--2--2--2--2--2--2--|
-------------------------|---------------------|--------------------------|

  E  E  E  E  E  E  E  E     E  E  E  E  E  E  E  E   
--------------------------|--------------------------|
--------------------------|--------------------------|
--------------------------|--------------------------|
--------------------------|--------------------------|
--2--2--2--2--2--2--2--2--|--2--2--2--2--2--2--2--2--|
--------------------------|--------------------------|


  E  E  E  E  E  E  E  E     E  E  H        Q       Q    H        Q     
--------------------------|----------------------|---------------------|
--------------------------|--------9--------9----|--L----9--------7----|
--------------------------|--------9--------9----|--L----9--------7----|
--------------------------|--------9--------9----|--L----9--------7----|
--2--2--2--2--2--2--2--2--|--------7--------7----|--L----7-------------|
--------------------------|--0--0----------------|---------------------|


  W                   Q    Q    Q    Q        W                 
-------------------|----------------------|--------------------|
--L----------------|--L----9---------9----|--------------------|
--L----------------|--L----9---------9----|--11----------------|
--L----------------|--L----9---------9----|--11----------------|
-------------------|----------------------|---9----------------|
-------------------|----------------------|--------------------|


  H.           Q       W                   W                 
--------------------|-------------------|-------------------|
--------------------|-------------------|-------------------|
--L------------6----|--L----------------|--L----------------|
--L------------6----|--L----------------|--L----------------|
--L------------4----|--L----------------|--L----------------|
--------------------|-------------------|-------------------|


  E  E  E  E  E  E  Q       Q    Q    H           E  E  E  E  E  E  Q     
--------------------4----|--L----4----2--------|--------------------4----|
--------------------3----|--L----3----3--------|--------------------2----|
--------------------2----|--L----2----2--------|--------------------2----|
--0--0--0--0--0--0-------|---------------------|-------------------------|
-------------------------|---------------------|--0--0--0--0--0--0-------|
-------------------------|---------------------|-------------------------|


  Q    Q    H           W                   W                 
--L----4----2--------|-------------------|-------------------|
--L----2----2--------|-------------------|-------------------|
--L----2----2--------|-------------------|-------------------|
---------------------|-------------------|-------------------|
---------------------|--2----------------|--L----------------|
---------------------|--0----------------|--L----------------|


                                          Tempo Change                          
  W                   W                   W                   W                 
-------------------|-------------------|-------------------|-------------------|
-------------------|-------------------|-------------------|-------------------|
-------------------|-------------------|-------------------|-------------------|
-------------------|-------------------|-------------------|-------------------|
--L----------------|--L----------------|-------------------|-------------------|
--L----------------|--L----------------|-------------------|-------------------|


  W                   W                   W                   W                 
-------------------|-------------------|-------------------|-------------------|
-------------------|-------------------|-------------------|-------------------|
-------------------|-------------------|-------------------|-------------------|
-------------------|-------------------|-------------------|-------------------|
-------------------|-------------------|-------------------|-------------------|
-------------------|-------------------|-------------------|-------------------|


  W                   H        Q    S S S S    E  Q    E  H         
-------------------|------------------------|----------------------|
-------------------|------------------------|----------------------|
-------------------|------------------------|--5-------5-----------|
-------------------|------------------5-5-5-|--5-------5-----------|
-------------------|------------------3-3-3-|--3-------3-----------|
-------------------|------------------------|----------------------|

  E  Q    S S     E  E  E   E  E  E  E  E      E   E   E  E  E   E   E   E   
--------------|----------------------------|--------------------------------|
--4-----------|----------------------------|--------------------------------|
--4-----------|--11--------10--L--7--------|--10--10--11--------10--10--11--|
--4-------x-x-|---9---------9--L--9--------|---9---9---9---------9---9---9--|
--2-------x-x-|----------------------------|--------------------------------|
--------------|------7--7------------7--7--|--------------7--7--------------|

  E  E   E   E   E  E  E   E      E   E  E  E   E   E   E  E   
------------------------------|-------------------------------|
------------------------------|-------------------------------|
--------10--10--11--------10--|--10--11--------10--10--11-----|
---------9---9---9---------9--|---9---9---------9---9---9-----|
------------------------------|-------------------------------|
--7--7--------------7--7------|----------7--7--------------7--|


  E   E   E   E  H            W                    W                 
--------------------------|--------------------|--------------------|
--------------------------|--------------------|--------------------|
-----10--10--11-----------|---9----------------|--11----------------|
------9---9---9-----------|--10----------------|--12----------------|
--------------------------|--10----------------|--12----------------|
--7-----------------------|---8----------------|--10----------------|

   E  E  E   E   E   E  E  E      E   E   E  E  E   E   E   E   
------------------------------|--------------------------------|
------------------------------|--------------------------------|
--11--------10--10--11--------|--10--10--11--------10--10--11--|
---9---------9---9---9--------|---9---9---9---------9---9---9--|
------------------------------|--------------------------------|
------7--7--------------7--7--|--------------7--7--------------|

   W                    W                    E  E  E   E   E   E  E  E   
--------------------|--------------------|------------------------------|
--------------------|--------------------|------------------------------|
---9----------------|--11----------------|--11--------10--10--11--------|
--10----------------|--12----------------|---9---------9---9---9--------|
--10----------------|--12----------------|------------------------------|
---8----------------|--10----------------|------7--7--------------7--7--|


   E   E   E  E  E   E  E   E      W                    W                 
-------------------------------|--------------------|--------------------|
-------------------------------|--------------------|--------------------|
--10--10--11--------10-----11--|---9----------------|--11----------------|
---9---9---9---------9------9--|--10----------------|--12----------------|
-------------------------------|--10----------------|--12----------------|
--------------7--7-------------|---8----------------|--10----------------|


  W                   W                    W                 
-------------------|-------------------|--------------------|
--8----------------|--7----------------|--------------------|
--9----------------|--7----------------|---9----------------|
--9----------------|--9----------------|--10----------------|
--7----------------|--9----------------|--10----------------|
-------------------|--7----------------|---8----------------|


   W                    W                     H          H         
--------------------|---------------------|--12~--------19--------|
--------------------|--12~----------------|-----------------------|
--11----------------|---------------------|-----------------------|
--12----------------|---------------------|-----------------------|
--12----------------|---------------------|-----------------------|
--10----------------|---------------------|-----------------------|


   H.            Q        Q     H         E   S   S  
--10------------14----|--16----16--------16--16p-14-|
----------------------|-----------------------------|
----------------------|-----------------------------|
----------------------|-----------------------------|
----------------------|-----------------------------|
----------------------|-----------------------------|

                                     |--3--|  |--3-|                       

   E.   E.   Q.      E  E      Q     S  S  S  S  S S  S  S  E   S  S  E    
--16-----------------------|--15----15-12---------------------------------|
-------17------------------|--------------15-12---------------------------|
------------16~------------|--------------------14-L-12-12-12--12-12-12S--|
---------------------x--x--|----------------------------------------------|
---------------------------|----------------------------------------------|
---------------------------|----------------------------------------------|

             |----3----|    |----3----|    |----3----|                        
   E.    S   E    E    E    E    E    E    E    E    E     H.           Q     
--------------------------------------------------------|--------------------|
--------------------------------------------------------|--------------------|
--11h---12p-11h--12p--11h--12p--11h--12p--11h--12p--11--|--L------------x----|
--------------------------------------------------------|--------------------|
--------------------------------------------------------|--------------------|
--------------------------------------------------------|--------------------|

  H          H             H          H            Q     E   E   Q.       E   
-----------------------|--12~--------19--------|--22----22--22--22~------17--|
------------12~--------|-----------------------|-----------------------------|
--9~-------------------|-----------------------|-----------------------------|
-----------------------|-----------------------|-----------------------------|
-----------------------|-----------------------|-----------------------------|
-----------------------|-----------------------|-----------------------------|


   Q     E   E   E.   S  E   S   S  
--19----19--19--19---19-19--19p-17-|
-----------------------------------|
-----------------------------------|
-----------------------------------|
-----------------------------------|
-----------------------------------|

                                 |---3---|   

   S  S  S  S  S   S  E   Q      E   E   E   
--19-19-19-19-19p-17-19--19~----19--19--17--|
--------------------------------------------|
--------------------------------------------|
--------------------------------------------|
--------------------------------------------|
--------------------------------------------|

   |---3---|   |---3---|   |---3--|   |---3--|                
   E   E   E   S   S   S   S  S   S   S   S  S  E   E   S  S  
--15--17--19--17h-19p-17p-15-14h-15h-17p-15----15--14-----14-|
--------------------------------------------17---------15----|
-------------------------------------------------------------|
-------------------------------------------------------------|
-------------------------------------------------------------|
-------------------------------------------------------------|


   |--3--|  |--3--|  |--3--|   |---3---|                 |---3---|   |---3---|  
   S  S  S  S  S  S  S  S  S   S   S   S  S   S   S   S  S   S   S   S   S   S  
-----------------14-15-17-15h-17p-15p-14---------------------------------------|
--17-15-14-15-17-------------------------12h-13h-15p-13------------------------|
--------------------------------------------------------14p-11h-12h-14p-12h-12-|
-------------------------------------------------------------------------------|
-------------------------------------------------------------------------------|
-------------------------------------------------------------------------------|


                                                       Tempo Change       
          |--3--|                                                         
   S   S  S  S  S  S   S E   S   S   S  S  S S S S     W                  
-------------------------x--14p-12p-10-------------|---------------------|
---------------------------------------12----------|---------------------|
------------------------------------------11-------|---------------------|
---------------12-16p-14---------------------------|---------------------|
------------14-------------------------------9-9-9-|---------------------|
--14S-15-15----------------------------------------|--12S----------------|


  W                   W                   W                   W                 
-------------------|-------------------|-------------------|-------------------|
-------------------|-------------------|-------------------|-------------------|
-------------------|-------------------|-------------------|-------------------|
-------------------|-------------------|-------------------|-------------------|
-------------------|-------------------|-------------------|-------------------|
-------------------|-------------------|-------------------|-------------------|


  W                   W                   W                   W                 
-------------------|-------------------|-------------------|-------------------|
-------------------|-------------------|-------------------|-------------------|
-------------------|-------------------|-------------------|-------------------|
-------------------|-------------------|-------------------|-------------------|
-------------------|-------------------|-------------------|-------------------|
-------------------|-------------------|-------------------|-------------------|


  W                   W                   W                   W                 
-------------------|-------------------|-------------------|-------------------|
-------------------|-------------------|-------------------|-------------------|
-------------------|-------------------|-------------------|-------------------|
-------------------|-------------------|-------------------|-------------------|
-------------------|-------------------|-------------------|-------------------|
-------------------|-------------------|-------------------|-------------------|


  W                   W                   W                   W                 
-------------------|-------------------|-------------------|-------------------|
-------------------|-------------------|-------------------|-------------------|
-------------------|-------------------|-------------------|-------------------|
-------------------|-------------------|-------------------|-------------------|
-------------------|-------------------|-------------------|-------------------|
-------------------|-------------------|-------------------|-------------------|


  W                   W                   W                   W                 
-------------------|-------------------|-------------------|-------------------|
-------------------|-------------------|-------------------|-------------------|
-------------------|-------------------|-------------------|-------------------|
-------------------|-------------------|-------------------|-------------------|
-------------------|-------------------|-------------------|-------------------|
-------------------|-------------------|-------------------|-------------------|


  W                   W                   W                   W                 
-------------------|-------------------|-------------------|-------------------|
-------------------|-------------------|-------------------|-------------------|
-------------------|-------------------|-------------------|-------------------|
-------------------|-------------------|-------------------|-------------------|
-------------------|-------------------|-------------------|-------------------|
-------------------|-------------------|-------------------|-------------------|


  W                   W                   W                   W                 
-------------------|-------------------|-------------------|-------------------|
-------------------|-------------------|-------------------|-------------------|
-------------------|-------------------|-------------------|-------------------|
-------------------|-------------------|-------------------|-------------------|
-------------------|-------------------|-------------------|-------------------|
-------------------|-------------------|-------------------|-------------------|


  W                   W                   W                   W                 
-------------------|-------------------|-------------------|-------------------|
-------------------|-------------------|-------------------|--9----------------|
-------------------|-------------------|-------------------|--9----------------|
-------------------|-------------------|-------------------|--9----------------|
-------------------|-------------------|-------------------|--7----------------|
-------------------|-------------------|-------------------|-------------------|


  H.           Q       W                   W                 
--------------------|-------------------|-------------------|
--L------------7----|--L----------------|--L----------------|
--L------------7----|--L----------------|--L----------------|
--L------------7----|--L----------------|--L----------------|
--L------------7----|--L----------------|--L----------------|
--------------------|-------------------|-------------------|


   W                   H.           Q       W                 
--------------------|--------------------|-------------------|
--------------------|--------------------|-------------------|
--11----------------|--L------------6----|--L----------------|
--11----------------|--L------------6----|--L----------------|
---9----------------|--L------------4----|--L----------------|
--------------------|--------------------|-------------------|


  W                   E  E  E  E  E  E  Q       Q    Q    H         
-------------------|--------------------4----|--L----4----2--------|
-------------------|--------------------3----|--L----3----3--------|
--L----------------|--0--0--0--0--0--0--2----|--L----2----2--------|
--L----------------|-------------------------|---------------------|
--L----------------|-------------------------|---------------------|
-------------------|-------------------------|---------------------|

  E  E  E  E  E  E  Q       Q    Q    H           E  E  E  E  E  E  E  E   
--------------------4----|--L----4----2--------|--------------------------|
--------------------2----|--L----2----2--------|--------------------------|
--------------------2----|--L----2----2--------|--------------------------|
-------------------------|---------------------|--------------------------|
--0--0--0--0--0--0-------|---------------------|--2--2--2--2--2--2--2--2--|
-------------------------|---------------------|--------------------------|

  E  E  E  E  E  E  E  E     E  E  E  E  E  E  E  E   
--------------------------|--------------------------|
--------------------------|--------------------------|
--------------------------|--------------------------|
--------------------------|--------------------------|
--2--2--2--2--2--2--2--2--|--2--2--2--2--2--2--2--2--|
--------------------------|--------------------------|


  E  E  E  E  E  E  E  E     E  E  H        Q       Q    H        Q     
--------------------------|----------------------|---------------------|
--------------------------|--------9--------9----|--L----9--------7----|
--------------------------|--------9--------9----|--L----9--------7----|
--------------------------|--------9--------9----|--L----9--------7----|
--2--2--2--2--2--2--2--2--|--------7--------7----|--L----7-------------|
--------------------------|--0--0----------------|---------------------|


  W                   Q    Q    Q    Q        W                 
-------------------|----------------------|--------------------|
--L----------------|--L----9---------9----|--------------------|
--L----------------|--L----9---------9----|--11----------------|
--L----------------|--L----9---------9----|--11----------------|
-------------------|----------------------|---9----------------|
-------------------|----------------------|--------------------|


  H.           Q       W                   W                 
--------------------|-------------------|-------------------|
--------------------|-------------------|-------------------|
--L------------6----|--L----------------|--L----------------|
--L------------6----|--L----------------|--L----------------|
--L------------4----|--L----------------|--L----------------|
--------------------|-------------------|-------------------|


  E  E  E  E  E  E  Q       Q    Q    H           E  E  E  E  E  E  Q     
--------------------4----|--L----4----2--------|--------------------4----|
--------------------3----|--L----3----3--------|--------------------2----|
--------------------2----|--L----2----2--------|--------------------2----|
--0--0--0--0--0--0-------|---------------------|-------------------------|
-------------------------|---------------------|--0--0--0--0--0--0-------|
-------------------------|---------------------|-------------------------|

  Q    Q    H           E  E  E  E  E  E  E  E     E  E  E  E  E  E  E  E   
--L----4----2--------|--------------------------|--------------------------|
--L----2----2--------|--------------------------|--------------------------|
--L----2----2--------|--------------------------|--------------------------|
---------------------|--------------------------|--------------------------|
---------------------|--2--2--2--2--2--2--2--2--|--2--2--2--2--2--2--2--2--|
---------------------|--------------------------|--------------------------|


  E  E  E  E  E  E  E  E     E  E  E  E  H           W                 
--------------------------|-----------------------|-------------------|
--------------------------|--------2--------------|--7----------------|
--------------------------|--------2--------------|--7----------------|
--------------------------|--------2--------------|--7----------------|
--2--2--2--2--2--2--2--2--|--2--2--4--------------|--5----------------|
--------------------------|-----------------------|-------------------|


  W                   W                   W                   W                 
-------------------|-------------------|-------------------|-------------------|
--L----------------|-------------------|-------------------|-------------------|
--L----------------|-------------------|-------------------|-------------------|
--L----------------|--7----------------|--L----------------|-------------------|
--L----------------|--4----------------|--L----------------|--6----------------|
-------------------|-------------------|-------------------|--4----------------|


  W                   W                   W                 
-------------------|-------------------|-------------------|
-------------------|-------------------|-------------------|
-------------------|-------------------|-------------------|
-------------------|--6----------------|--L----------------|
--L----------------|--4----------------|--L----------------|
--L----------------|-------------------|-------------------|


  E  E  E  E  E  E  Q     

Video Clip de Never Understand


ACORDES PARA GUITARRA

PIANO UKELELE
E


TOP 20: Las más tocadas de Angra


Toca una Canción al Azar de Angra

Acordes

Cerrar
E

09.01

x

220