Speed (Acordes)

Angra

Full Álbum: Fireworks (1998)
Subida por HKEm7

Compartir


Cambiar Cifrado
Americano Latino

Cambiar Tonalidad
-1 +1
Imprimir FAQ
+A
-A

Texto

Desplazamiento

Transportador

Color de Fondo

Archivos

Mudar para Português

TONALIDAD, TAMAÑO, CIFRADO, SCROL.

Nos renovamos: Ahora puedes cambiar TODO haciendo clic en ICONO de la Guitarra () que aparece en la parte inferior de esta página.


LETRA CON ACORDES

(intro)

|----------------------------------|-----------------------------------------|
|----------------------------------|---------------5-------------------------|
|----------------------------------|-----------------------------7-----------|
|--9----------11-----------12------|-----------------------------------------|
|--9-----------9------------9------|---5-----------5-------------5-----------|
|--7--7-7-7-7--7--7-7-7-7--7--7-7--|---3--3-3-3-3--3---3-3-3-3---3---3-3-----|
      x x x x     x x x x     x x         x x x x      x x x x       x x

|----------------------------------|----------------------------------|-----------|  |------------|
|----------------------------------|----------------------------------|-----------|  |------------|
|--7-----------6-------------------|--3-----------4-----------6-------|--6---4--4-|4x|---7---6--6-|
|--------------------------9-------|----------------------------------|-----------|  |------------|
|--7-----------7-----------7-------|--4-----------4-----------4-------|--5---5--5-|  |---7---7--7-|
|--5--5-5-5-5--5--5-5-5-5--5--5-5--|--2--2-2-2-2--2--2-2-2-2--2--2-2--|--3---3--3-|  |---5---5--5-|
      x x x x     x x x x     x x        x x x x     x x x x     x x

(riff)
|------------------------------------------|-----------------------------------------|
|------------------------------------------|-----------------------------------------|
|------------------------------------------|-----------------------------------------|
|--9-7------7------------------------------|--9-7----9-7------7----------------------|
|------11-7---11-7----11-7------7----------|------11-----11-7---11-7----11-7------7--|
|------------------10------10-7---10-7-10--|-------------------------10------10-7----|

|--------------------------------------------------|
|---------------------------------------10-----9---|
|---------------9~~----------------------9-----9---|
|---------------9~~----------------------9-----9---|
|--------------------------------------------------|
|--9-9-9-9-9-9-----------9-9-9-9-9-9---------------|

Video Clip de Speed


ACORDES PARA GUITARRA

PIANO UKELELE


TOP 20: Las más tocadas de Angra


Toca una Canción al Azar de Angra

Acordes

Cerrar

12.25

x

351