Unholy Wars (Acordes)

Angra

Subida por Martinbup

Compartir


Cambiar Cifrado
Americano Latino

Cambiar Tonalidad
-1 +1
Imprimir FAQ
+A
-A

Texto

Desplazamiento

Transportador

Color de Fondo

Archivos

Mudar para Português

TONALIDAD, TAMAÑO, CIFRADO, SCROL.

Nos renovamos: Ahora puedes cambiar TODO haciendo clic en ICONO de la Guitarra () que aparece en la parte inferior de esta página.


LETRA CON ACORDES

faça esse riff algumas vezes antes de entrar a voz e o resto
Riff1
-------------------------------------------------------------------------------------
-------------------------------------------------------------------------------------
---------9--xx--9h11--9--7-9--------9-xx-11s13s11p9-9--11p9-7-9---------9xx9h11-9-7-9
---------9--xx--9-----9--7-9--------9-xx-9-s11s9----9--9----7-9---------9xx9----9-7-9
----7h9-------------------------7h9---------------------------------7h9--------------
--0---------------------------0-----------------------------------0------------------

----------------
----------------
------9-xx-9-7-9
------9-xx-9-7-9
--7h9-----------
-0--------------


(E)3x (E D G D C) (E A G)

Riff2
e|----------------------------------------------------------------------|
B|----------------------------------------------------------------------|
G|-9--------7-------9--------10-------10---9-----10----9-----9-----7----|
D|-10-------9-------10-------12-------12---10----10----10---10-----9----|
A|----0-0-0---0-0-0----0-0-0----0-0-0-----------------------------------|
E|----------------------------------------------------------------------|

dueto com o teclado e o baixo
e----------------------------------------------------------------------
b----------------------------10-8-7------------------------------------
g------------------------7-9--------9-7-6------------------------------
d-------------6-7-9-6-7--------------------11--------------------------
a--5-7-8-5-7----------------------------------11-8-7h8p7h8p7h8p7h8p7h8p7`~`~`
e-----------------------------------------------------------------------

Am                          F
  A lethal bolt pierces the air   Like a falling 
     Riff2
   Star, young eyes are observing in the darkness

Am
  His stare's reflecting fright
        F                     Dm
  And scared he's struggling hard
         E
  To go back

Am
  Uneasy warders guard
       F
  The jail on quiet
    Riff2
   Nights, young eyes contemplating somewhere to hide

Am
  Mankind will soon learn
           F        B7      E
  That the end has come in time

     Dm               C
  Dividing lands, retracing
           Bb             Gm
  All the borders will colide
Dm                           C
  Revealing ages when the absence
         Bb                 D A/C#
  Of forgiveness rules our lives

   D          F#m 
  Home how I go
      G               D A/C#
  My badge is wearing out
    Bm            E
  Written on the sand
   G             A             Bm
  Words to reconcile - unholy wars

Solo1: (C#) (E) (CAb G

Ab           Gm      
  Forgive us    our father
Fm             G
  For we have sinned
Ab             Gm
  Blinded by pride
       Fm              G
  We know not what we do
Eb         F   Ab    G
  Thy kingdom   will be done
Eb    C D  G    Bb Ab G F Ab G Bb Ab
  By holy wars

Solo2: (G) (C Bb/D Eb C/E F Ab G)2x
       
(Riff2) 2x

Am
  The battle is over
           F         B7   E
  But the war still rages on!

     Dm               C
  Dividing lands, retracing
           Bb             Gm
  All the borders will colide
Dm                           C
  Revealing ages when the absence
         Bb                 D A/C#
  Of forgiveness rules our lives

   D          F#m 
  Home how I go
      G               D A/C#
  My badge is wearing out
    Bm            E
  Written on the sand
   G             B
  Words to reconcile

   E          G#m 
  Home how I go
      A               E B/D#
  My badge is wearing out
    C#m            F#
  Written on the sand
   A             B             E
  Words to reconcile - unholy wars

--------------------------------------------------------------------------------
----------------------------7h9-7---7-------------------------------------------
-------9--9-9--7-9----------------9---9-7h9--------9--9-9--7-9--------97-7-7/9-
---7h9-9--9-9--7-9----7h9-9--------------------7h9-9--9-9--7-9----7h9-97-7-7/9-
-7------------------7------------------------7------------------7---------------
--------------------------------------------------------------------------------
fica assim ate o fade out

Video Clip de Unholy Wars


ACORDES PARA GUITARRA

PIANO UKELELE
E
D
G
C
A
Am
F
Dm
B7
Bb
Gm
A/C#
F#m
Bm
C#
Ab
Fm
Eb
Bb/D
C/E
B
G#m
B/D#
C#m
F#


TOP 20: Las más tocadas de Angra


Toca una Canción al Azar de Angra

Acordes

Cerrar
E
D
G
C
A
Am
F
Dm
B7
Bb
Gm
A/C#
F#m
Bm
C#
Ab
Fm
Eb
Bb/D
C/E
B
G#m
B/D#
C#m
F#

08.36

x

212