Wuthering Heights (Acordes)

Angra

Full Álbum: Angels Cry (1993)
Subida por Estbango

Compartir


Cambiar Cifrado
Americano Latino

Cambiar Tonalidad
-1 +1
Imprimir FAQ
+A
-A

Texto

Desplazamiento

Transportador

Color de Fondo

Archivos

Mudar para Português

TONALIDAD, TAMAÑO, CIFRADO, SCROL.

Nos renovamos: Ahora puedes cambiar TODO haciendo clic en ICONO de la Guitarra () que aparece en la parte inferior de esta página.


LETRA CON ACORDES

Intro:

E|-10p7----10p7----10p7-10p7--------------------------|
B|------10------10-----------8------------------------|
G|-0--------------------------------------------------|
D|----------------------------------------------------|
A|----------------------------------------------------|
E|----------------------------------------------------|

    H.A. .  .  . .  .  .  .   .
E|-10-7----10-7----10-7-10p7--------------------------|
B|------10------10-----------8------------------------|
G|----------------------------------------------------|
D|----------------------------------------------------|
A|----------------------------------------------------|
E|----------------------------------------------------|

Primeira Parte:

Parte 1
   G                  Eb
E|----------10----------------6-------------|
B|------8--------8--------4-------4---------|
G|--------0----0---0--------0---0---0-------|
D|----9-----------------5-------------------|
A|-10-----------------6---------------------|
E|------------------------------------------|

Parte 2
   D11              B7
E|---------5----------------2---------------|
B|-----3-------3--------0-------0-----------|
G|-------0---0---0--------2---2---2---------|
D|---4----------------1---------------------|
A|-5----------------2-----------------------|
E|------------------------------------------|


Primeira Parte:

G                    Eb
Out on the winding, windy moors
      D11                   B7
We'd roll and fall in the green
 G               Eb                D11
You had a temper,   like my jealousy
               B7
Too hot, too greedy
G
  How could you leave me
Eb                D11
   When I needed to possess you
B7                 F#
   I hated you, I loved you too


Segunda Parte:

   C#m7     E        D#
E|-----0--------4------------3--------------|
B|-----0--------5----------4-----4----------|
G|-----6--------4--------3-----3---3--------|
D|---6--------6--------5--------------------|
A|-4-----4--7-----7--6----------------------|
E|------------------------------------------|

   C#m7     E        D#
E|-----0--------4------------3--------------|
B|-----0--------5----------4-----4----------|
G|-----6--------4--------3-----3---3--------|
D|---6--------6--------5--------------------|
A|-4-----4--7-----7--6----------------------|
E|------------------------------------------|

   C#m7     E        D#
E|-----0--------4------------3--------------|
B|-----0--------5----------4-----4----------|
G|-----6--------4--------3-----3---3--------|
D|---6--------6--------5--------------------|
A|-4-----4--7-----7--6----------------------|
E|------------------------------------------|

   D#
E|-3-3-3-3-3-3-3-3-3-3-3-3-3----------------|
B|-4-4-4-4-4-4-4-4-4-4-4-4-4----------------|
G|-3-3-3-3-3-3-3-3-3-3-3-3-3----------------|
D|-5-5-5-5-5-5-5-5-5-5-5-5-5----------------|
A|-6-6-6-6-6-6-6-6-6-6-6-6-6----------------|
E|------------------------------------------|
   ? ? ? ? ? ? ? ? ? ? ? ? ?


Segunda Parte:

C#m7       E            D#
     Bad dreams in the night
C#m7              E      D#
     They told me I was going to loose the fight
C#m          E       D#
    Leave behind my wuthering, wuthering

Wuthering heights


Refrão:

       E   C#m
Heathcliff
      F#
It's me, Cathy
      B    E
Come home, I'm so cold
     F#         B  E
Let me in your window

       E   C#m
Heathcliff
      F#
It's me, Cathy
      B    E
Come home, I'm so cold
     F#         B  E  G
Let me in your window


Quarta Parte:

G                Eb
Oh, it gets dark,   it gets lonely
D11               B7
    On the other side from you
G              Eb
  I pine a lot,   I find the lot
D11                   B7
    Falls through without you
G
  I'm coming back, love
Eb
   Cruel Heathcliff
D11              B7          F#
    My one dream,   my only master


Quinta Parte:

   E
E|-4-----4-----4----------------------------|
B|---5-----5-----5--------------------------|
G|-----4-----4------------------------------|
D|------------------------------------------|
A|------------------------------------------|
E|-0----------------------------------------|

   G#m
E|-7-----7-----7-----7-----7-----7----------|
B|---4-----4-----4-----4-----4-----4--------|
G|-----4-----4-----------4-----4------------|
D|------------------------------------------|
A|------------------------------------------|
E|-4-----------------4----------------------|

Quinta Parte:

C#m7             E           D#
     Too long I roam in the night
C#m7             E           D#
     I'm coming back to his side to put it right
C#m7             E       D#
     I'm coming home to wuthering, wuthering

Wuthering heights


Refrão:

       E   C#m
Heathcliff
      F#
It's me, Cathy
      B    E
Come home, I'm so cold
     F#         B  E
Let me in your window

       E   C#m
Heathcliff
      F#
It's me, Cathy
      B    E
Come home, I'm so cold
     F#         B  E
Let me in your window


Quinta Parte:

G#m         F#
Oh, let me have it
         E        C#m7  B
Let me grab your soul away
G#m         F#
Oh, let me have it
         E        C#m7  B
Let me grab your soul away
 G#m            F#  E  G#m
You know, it's me


Refrão:

       E   C#m
Heathcliff
      F#
It's me, Cathy
      B    E
Come home, I'm so cold
     F#         B  E
Let me in your window

       E   C#m
Heathcliff
      F#
It's me, Cathy
      B    E
Come home, I'm so cold
     F#         B  E
Let me in your window

       E   C#m
Heathcliff
      F#
It's me, Cathy
      B    E           F#  B  E  F#  B  E
Come home, I'm so cold

Video Clip de Wuthering Heights


ACORDES PARA GUITARRA

PIANO UKELELE
G
Eb
D11
B7
F#
C#m7
E
D#
C#m
B
G#m


TOP 20: Las más tocadas de Angra


Toca una Canción al Azar de Angra

Acordes

Cerrar
G
Eb
D11
B7
F#
C#m7
E
D#
C#m
B
G#m

09.28

x

161