Z.I.T.O (Acordes)

Angra

Full Álbum: Holy Land (1996)
Subida por Clarix

Compartir


Cambiar Cifrado
Americano Latino

Cambiar Tonalidad
-1 +1
Imprimir FAQ
+A
-A

Texto

Desplazamiento

Transportador

Color de Fondo

Archivos

Mudar para Português

TONALIDAD, TAMAÑO, CIFRADO, SCROL.

Nos renovamos: Ahora puedes cambiar TODO haciendo clic en ICONO de la Guitarra () que aparece en la parte inferior de esta página.


LETRA CON ACORDES

Primeira Parte:

Bm      D6  A9/C#  Bm    A9   E/G#  Bm
   Somehow  I     turn around and  see
    D6      A9/C#  G          F11
My nerves break   down inside
 Bm    D6  A9/C#   Bm       A9    E/G#  Bm
Maybe you might  know much more than   me
    D6   A9/C#  G               F11
So tell me    what is right to say

Primeira Parte:

  Bm
E|------------------------------------------|
B|-------0-----0-----------0-----0----------|
G|---7-----7-----7-----7-----7-----7--------|
D|-----9-----9-----------9-----9------------|
A|------------------------------------------|
E|-7----------------7-----------------------|

   D6                     A9/C#
E|------------------------------------------|
B|----------0-------0-----------0-----0-----|
G|----11------11------11----9-----9-----9---|
D|-------12------12-----------7-----7-------|
A|------------------------------------------|
E|-10---------------------9-----------------|

   Bm
E|------------------------------------------|
B|-------0-----0-----------0-----0----------|
G|---7-----7-----7-----7-----7-----7--------|
D|-----9-----9-----------9-----9------------|
A|------------------------------------------|
E|-7----------------7-----------------------|

   A9               E/G#
E|------------------------------------------|
B|-------0-----0-----------0-----0----------|
G|---6-----6-----6-----4-----4-----4--------|
D|-----7-----7-----------2-----2------------|
A|------------------------------------------|
E|-5----------------4-----------------------|

   Bm
E|------------------------------------------|
B|-------0-----0-----------0-----0----------|
G|---7-----7-----7-----7-----7-----7--------|
D|-----9-----9-----------9-----9------------|
A|------------------------------------------|
E|-7----------------7-----------------------|

   D6                     A9/C#
E|------------------------------------------|
B|----------0-------0-----------0-----0-----|
G|----11------11------11----9-----9-----9---|
D|-------12------12-----------7-----7-------|
A|------------------------------------------|
E|-10---------------------9-----------------|

   G
E|------------------------------------------|
B|-------0-----0----------0-----0-----------|
G|---4-----4-----4----4-----4-----4---------|
D|-----5-----5----------5-----5-------------|
A|------------------------------------------|
E|-3----------------3-----------------------|

   F11
E|------------------------------------------|
B|-------0-----0----------0-----0-----------|
G|---3-----3-----3----3-----3-----3---------|
D|-----4-----4----------4-----4-------------|
A|------------------------------------------|
E|-2----------------2-----------------------|


Segunda Parte:

D11                   A7/C#
    Down the weakness of my soul
Em                  B5+/D#
   Lie the secrets, and I know
         G9                C   A
There's something pushing back

D11                      A7/C#
    Wish my hands could turn to gold
Em                      B5+/D#
   And my heart would break the cold
    G9                    A#º  C#º
To give my thoughts some sense

Segunda Parte:

   D11
E|------------------------------------------|
B|-------3-----3----------3-----3-----------|
G|---0-----0-----0----0-----0-----0---------|
D|-----4-----4----------4-----4-------------|
A|-5----------------5-----------------------|
E|------------------------------------------|

   A7/C#
E|------------------------------------------|
B|-------5-----5----------5-----5-----------|
G|---0-----0-----0----0-----0-----0---------|
D|-----7-----7----------7-----7-------------|
A|-4----------------4-----------------------|
E|------------------------------------------|

   Em
E|------------------------------------------|
B|-------8-----8----------8-----8-----------|
G|---0-----0-----0----0-----0-----0---------|
D|-----9-----9----------9-----9-------------|
A|-7----------------7-----------------------|
E|------------------------------------------|

   B5+/D#
E|------------------------------------------|
B|-------7-----7----------7-----7-----------|
G|---0-----0-----0----0-----0-----0---------|
D|-----9-----9----------9-----9-------------|
A|-6----------------6-----------------------|
E|------------------------------------------|

   G9   (2x)
E|------------------------------------------|
B|-------3-----3----------3-----3-----------|
G|---2-----2-----2----2-----2-----2---------|
D|-----0-----0----------0-----0-------------|
A|------------------------------------------|
E|-3----------------3-----------------------|

   C
E|------------------------------------------|
B|-------1-----1----------1-----1-----------|
G|---0-----0-----0----0-----0-----0---------|
D|-----2-----2----------2-----2-------------|
A|-3----------------3-----------------------|
E|------------------------------------------|

   A
E|------------------------------------------|
B|-------5-----5----------5-----5-----------|
G|---6-----6-----6----6-----6-----6---------|
D|-----7-----7----------7-----7-------------|
A|-0----------------0-----------------------|
E|------------------------------------------|

Terceira Parte:

Bm      D6  A9/C#  Bm        A9   E/G#  Bm
   The turn is   close, new cen__tu____ry
       D6  A9/C#  G            F11
Still people    think they're kings
 Bm         D6  A9/C#  Bm     A9  E/G#  Bm
Now you've got your   voice, your own speech
       D6    A9/C#  G              F11
Don't wait 'till   someone else agress

Repetição:

   D11
E|------------------------------------------|
B|-------3-----3----------3-----3-----------|
G|---0-----0-----0----0-----0-----0---------|
D|-----4-----4----------4-----4-------------|
A|-5----------------5-----------------------|
E|------------------------------------------|

   A7/C#
E|------------------------------------------|
B|-------5-----5----------5-----5-----------|
G|---0-----0-----0----0-----0-----0---------|
D|-----7-----7----------7-----7-------------|
A|-4----------------4-----------------------|
E|------------------------------------------|

   Em
E|------------------------------------------|
B|-------8-----8----------8-----8-----------|
G|---0-----0-----0----0-----0-----0---------|
D|-----9-----9----------9-----9-------------|
A|-7----------------7-----------------------|
E|------------------------------------------|

  B5+/D#
E|------------------------------------------|
B|-------7-----7----------7-----7-----------|
G|---0-----0-----0----0-----0-----0---------|
D|-----9-----9----------9-----9-------------|
A|-6----------------6-----------------------|
E|------------------------------------------|

   G9    (2x)
E|------------------------------------------|
B|-------3-----3----------3-----3-----------|
G|---2-----2-----2----2-----2-----2---------|
D|-----0-----0----------0-----0-------------|
A|------------------------------------------|
E|-3----------------3-----------------------|

   A#º
E|------------------------------------------|
B|-------5-----5----------5-----5-----------|
G|---6-----6-----6----6-----6-----6---------|
D|-----5-----5----------5-----5-------------|
A|------------------------------------------|
E|-6----------------6-----------------------|

   C#º
E|------------------------------------------|
B|-------8-----8----------8-----8-----------|
G|---9-----9-----9----9-----9-----9---------|
D|-----8-----8----------8-----8-------------|
A|------------------------------------------|
E|-9----------------9-----------------------|


Quarta Parte:

D11                A7/C#
    Swimming naked of beliefs
Em              B5+/D#
   And responsabilities
      G9               C   A
Just feel the sea of bliss
D11                 A7/C#
    Mother nature brings to me
G9               B5+/D#
   In fantastic purity
G9            F9
Everything I need

Quarta Parte:

  D11
E|------------------------------------------|
B|-------3-----3----------3-----3-----------|
G|---0-----0-----0----0-----0-----0---------|
D|-----4-----4----------4-----4-------------|
A|-5----------------5-----------------------|
E|------------------------------------------|

   A7/C#
E|------------------------------------------|
B|-------5-----5----------5-----5-----------|
G|---0-----0-----0----0-----0-----0---------|
D|-----7-----7----------7-----7-------------|
A|-4----------------4-----------------------|
E|------------------------------------------|

   Em
E|------------------------------------------|
B|-------8-----8----------8-----8-----------|
G|---0-----0-----0----0-----0-----0---------|
D|-----9-----9----------9-----9-------------|
A|-7----------------7-----------------------|
E|------------------------------------------|

   B5+/D#
E|------------------------------------------|
B|-------7-----7----------7-----7-----------|
G|---0-----0-----0----0-----0-----0---------|
D|-----9-----9----------9-----9-------------|
A|-6----------------6-----------------------|
E|------------------------------------------|

   G9   (2x)
E|------------------------------------------|
B|-------3-----3----------3-----3-----------|
G|---2-----2-----2----2-----2-----2---------|
D|-----0-----0----------0-----0-------------|
A|------------------------------------------|
E|-3----------------3-----------------------|

   C
E|------------------------------------------|
B|-------1-----1----------1-----1-----------|
G|---0-----0-----0----0-----0-----0---------|
D|-----2-----2----------2-----2-------------|
A|-3----------------3-----------------------|
E|------------------------------------------|

   A
E|------------------------------------------|
B|-------5-----5----------5-----5-----------|
G|---6-----6-----6----6-----6-----6---------|
D|-----7-----7----------7-----7-------------|
A|-0----------------0-----------------------|
E|------------------------------------------|

Repetição:


   D11
E|------------------------------------------|
B|-------3-----3----------3-----3-----------|
G|---0-----0-----0----0-----0-----0---------|
D|-----4-----4----------4-----4-------------|
A|-5----------------5-----------------------|
E|------------------------------------------|

   A7/C#
E|------------------------------------------|
B|-------5-----5----------5-----5-----------|
G|---0-----0-----0----0-----0-----0---------|
D|-----7-----7----------7-----7-------------|
A|-4----------------4-----------------------|
E|------------------------------------------|

   Em
E|------------------------------------------|
B|-------8-----8----------8-----8-----------|
G|---0-----0-----0----0-----0-----0---------|
D|-----9-----9----------9-----9-------------|
A|-7----------------7-----------------------|
E|------------------------------------------|

  B5+/D#
E|------------------------------------------|
B|-------7-----7----------7-----7-----------|
G|---0-----0-----0----0-----0-----0---------|
D|-----9-----9----------9-----9-------------|
A|-6----------------6-----------------------|
E|------------------------------------------|

   G9   (2x)

E|------------------------------------------|
B|-------3-----3----------3-----3-----------|
G|---2-----2-----2----2-----2-----2---------|
D|-----0-----0----------0-----0-------------|
A|------------------------------------------|
E|-3----------------3-----------------------|

   F9
E|------------------------------------------|
B|-------1-----1----------1-----1-----------|
G|---0-----0-----0----0-----0-----0---------|
D|-----3-----3----------3-----3-------------|
A|------------------------------------------|
E|-1----------------1-----------------------|

Refrão:

Am            F9       C     G5  Em
   Like a teenager discovery
  Am           F9             B6  G
What's more delightful than this
  Am      F9         C          G  Em
Try to remember how good it was
 Am          F9        B6  G
Feeling the life as it is
To believe

Refrão:

   Am
E|------------------------------------------|
B|-------1-----1----------1-----1-----------|
G|---2-----2-----2----2-----2-----2---------|
D|-----2-----2----------2-----2-------------|
A|-0----------------0-----------------------|
E|------------------------------------------|

   F9
E|------------------------------------------|
B|-------1-----1----------1-----1-----------|
G|---0-----0-----0----0-----0-----0---------|
D|-----3-----3----------3-----3-------------|
A|------------------------------------------|
E|-1----------------1-----------------------|

   C
E|------------------------------------------|
B|-------1-----1----------1-----1-----------|
G|---0-----0-----0----0-----0-----0---------|
D|-----2-----2----------2-----2-------------|
A|-3----------------3-----------------------|
E|------------------------------------------|

   G5               Em
E|------------------------------------------|
B|-------3-----3----------0-----0-----------|
G|---0-----0-----0----0-----0-----0---------|
D|-----0-----0----------2-----2-------------|
A|------------------------------------------|
E|-3----------------0-----------------------|

   Am
E|------------------------------------------|
B|-------1-----1----------1-----1-----------|
G|---2-----2-----2----2-----2-----2---------|
D|-----2-----2----------2-----2-------------|
A|-0----------------0-----------------------|
E|------------------------------------------|

   F9
E|------------------------------------------|
B|-------1-----1----------1-----1-----------|
G|---0-----0-----0----0-----0-----0---------|
D|-----3-----3----------3-----3-------------|
A|------------------------------------------|
E|-1----------------1-----------------------|

   B6
E|------------------------------------------|
B|-------3-----3----------3-----3-----------|
G|---0-----0-----0----0-----0-----0---------|
D|-----3-----3----------3-----3-------------|
A|-1----------------1-----------------------|
E|------------------------------------------|

   G
E|------------------------------------------|
B|-------3-----3----------3-----3-----------|
G|---0-----0-----0----0-----0-----0---------|
D|-----0-----0----------0-----0-------------|
A|------------------------------------------|
E|-3----------------3-----------------------|

Interlúdio:

   Am9   (2x)
E|------------------------------------------|
B|-------0-----0----------0-----0-----------|
G|---5-----5-----5----5-----5-----5---------|
D|-----7-----7----------7-----7-------------|
A|------------------------------------------|
E|-5----------------5-----------------------|
   Bm  (2x)
E|------------------------------------------|
B|-------0-----0-----------0-----0----------|
G|---7-----7-----7-----7-----7-----7--------|
D|-----9-----9-----------9-----9------------|
A|------------------------------------------|
E|-7----------------7-----------------------|

E|------------------------------------------|
B|-------8-----8----------7-----7-----------|
G|---9-----9-----9----7-----7-----7---------|
D|------------------------------------------|
A|------------------------------------------|
E|-0---0-----0------0---0-----0-------------|

E|------------------------------------------|
B|-------5-----5----------3-----3-----------|
G|---6-----6-----6----4-----4-----4---------|
D|------------------------------------------|
A|------------------------------------------|
E|-0---0-----0------0---0-----0-------------|

   A  (2x)
E|------------------------------------------|
B|-------5-----5----------5-----5-----------|
G|---6-----6-----6----6-----6-----6---------|
D|-----7-----7----------7-----7-------------|
A|-0----------------0-----------------------|
E|------------------------------------------|

E|------------------------------------------|
B|--------10------10-----------8-----8------|
G|---11------11------11----9-----9-----9----|
D|-0----0-------0--------0---0-----0--------|
A|------------------------------------------|
E|------------------------------------------|

E|------------------------------------------|
B|-------7-----7----------5-----5-----------|
G|---7-----7-----7----6-----6-----6---------|
D|-0---0-----0------0---0-----0-------------|
A|------------------------------------------|
E|------------------------------------------|

   G
E|------------------------------------------|
B|-------3-----3----------3-----3-----------|
G|---4-----4-----4----4-----4-----4---------|
D|-----5-----5----------5-----5-------------|
A|------------------------------------------|
E|-3----------------3-----------------------|

E|------------------------------------------|
B|-------8-----8----------7-----7-----------|
G|---9-----9-----9----7-----7-----7---------|
D|------------------------------------------|
A|------------------------------------------|
E|-0---0-----0------0---0-----0-------------|

E|------------------------------------------|
B|-------5-----5----------3-----3-----------|
G|---6-----6-----6----4-----4-----4---------|
D|------------------------------------------|
A|------------------------------------------|
E|-0---0-----0------0---0-----0-------------|

   F#4  (2x)
E|------------------------------------------|
B|-------2-----2----------2-----2-----------|
G|---4-----4-----4----4-----4-----4---------|
D|-----4-----4----------4-----4-------------|
A|------------------------------------------|
E|-2----------------2-----------------------|

   F#
E|------------------------------------------|
B|-------2-----2----------2-----2-----------|
G|---3-----3-----3----3-----3-----3---------|
D|-----4-----4----------4-----4-------------|
A|------------------------------------------|
E|-2----------------2-----------------------|

Quinta Parte:

Bm      D6    A9/C#  Bm      A9  E/G#   Bm
   New world was    born out of man's dreams
     D6  A9/C#  G          F11
Now we  walk    on our own
Bm     D6   A9/C#  Bm           A9     E/G#  Bm
   The an__gels  cried, you've heard them   weep
     D6  A9/C#  G                 F11
But now  it's  time to make them sing

Quarta Parte:

D11                A7/C#
    Swimming naked of beliefs
Em              B5+/D#
   And responsabilities
      G9               C   A
Just feel the sea of bliss
D11                 A7/C#
    Mother nature brings to me
G9               B5+/D#
   In fantastic purity
G9            F9
Everything I need

Refrão:

Am            F9       C     G5  Em
   Like a teenager discovery
  Am           F9             B6  G5
What's more delightful than this
  Am      F9         C          G5  Em
Try to remember how good it was
 Am          F9        B6  G5
Feeling the life as it is
       Am9
To believe

Video Clip de Z.I.T.O


ACORDES PARA GUITARRA

PIANO UKELELE
Bm
D6
A9/C#
A9
E/G#
G
F11
D11
A7/C#
Em
G9
C
A
A#dim
C#dim
F9
Am
G5
B6
Am9
F#4
F#


TOP 20: Las más tocadas de Angra


Toca una Canción al Azar de Angra

Acordes

Cerrar
Bm
D6
A9/C#
A9
E/G#
G
F11
D11
A7/C#
Em
G9
C
A
A#dim
C#dim
F9
Am
G5
B6
Am9
F#4
F#

11.18

x

96