Bad Moon Rising
Creedence Clearwater Revival
Acordes

Subida por ange
Álbum: Green River ( 1969)


Más Versiones
Ver. 2 Ver. 3 Ver. 4 Ver. 5 Ver. 6
+A
-A
Introdução: D  A  G  D


Primeira Estrofe:

D A G D
I see the bad moon rising
A G D
I see trouble on the way
A G D
I see earthquakes and lightnin?
A G D
I see bad times today


Primeiro Refrão:

G
Don't go around tonight
D
Well, it's bound to take your life
A G D
There's a bad moon on the rise


Segunda Estrofe:

A G D
I hear hurricanes blowing
A G D
I know the end is coming soon
A G D
I fear rivers over flowing
A G D
I hear the voice of rage and ruin


Segundo Refrão:

G
Don't go around tonight
D
Well, it's bound to take your life
A G D
There's a bad moon on the rise

All right


Solo: D A G D
D A G D
G D A G D

D A G
E|------------------------------------------|
B|-7--7---7-7-x--5--x-3--x------------------|
G|-7--7---7-7-x--6--x-4--x------------------|
D|-7--7---7-7-x--7--x-5--x------------------|
A|------------------------------------------|
E|------------------------------------------|

D
E|------------------------------------------|
B|-3--3-------------------------------------|
G|-2--2--2-4----2-2-4--2-2-2/---------------|
D|-0--0------4------------------------------|
A|------------------------------------------|
E|------------------------------------------|

D A G
E|------------------------------------------|
B|-7--7---7-7-x--5--x-8--x------------------|
G|-7--7---7-7-x--6--x-7--x------------------|
D|-7--7---7-7-x--7--x-9--x------------------|
A|------------------------------------------|
E|------------------------------------------|

D
E|------------------------------------------|
B|-7--7------7----10--7---7-----------------|
G|-7--7----7---7--------7-------------------|
D|-7--7--7----------------------------------|
A|------------------------------------------|
E|------------------------------------------|

G
E|-----------3--3---------------------------|
B|-3--3----3-------5--3--5------------------|
G|-4--4--4----------------------------------|
D|-5--5-------------------------------------|
A|------------------------------------------|
E|------------------------------------------|

D
E|------------------------------------------|
B|-3--3--3-3-3--3---------------------------|
G|-2--2-----------4--2--4-------------------|
D|-4--4-------------------------------------|
A|------------------------------------------|
E|------------------------------------------|

A G
E|---5--5--5-5-5---3--3--3-3-3--------------|
B|---5--7--5-5-5---3--5--3-3-3--------------|
G|-6-6--6--6-6-6-4-4--4--4-4-4--------------|
D|-7-------------5--------------------------|
A|------------------------------------------|
E|------------------------------------------|

D
E|------------------------------------------|
B|-3--3-------------------------------------|
G|-2--2--2-4----2-2-4--2-2-2----------------|
D|-0--0------4------------------------------|
A|------------------------------------------|
E|------------------------------------------|


Terceira Estrofe:

D A G D
Hope you got your things together
A G D
Hope you are quite prepared to die
A G D
Looks like we're in for nasty weather
A G D
One eye is taken for an eye


Refrão Final:

G
Don't go around tonight
D
Well, it's bound to take your life
A G D
There's a bad moon on the rise
G
Don't go around tonight
D
Well, it's bound to take your life
A G D
There's a bad moon on the rise


Riff ? Guitarra Solo:

D A G
E|------------------------------------------|
B|-3--3---3-3-3----2-----3------------------|
G|-2--2---2-2-2----2-----0------------------|
D|-0--0---0-0-0-2--2-----0------------------|
A|--------------0---------------------------|
E|--------------------3---------------------|

D
E|------------------------------------------|
B|----3-------------------------------------|
G|----2--2-4----2-2-4--2-2-2----------------|
D|-0--0------4------------------------------|
A|------------------------------------------|
E|------------------------------------------|

ACORDES PARA GUITARRA

PIANO UKELELE
D
A
G


COMENTARIOS

Aún no hay comentarios,

¡escribe el primero!

Escribe una pregunta, duda o comentario sobre esta canción, te responderemos a la brevedad.

Las más tocadas de Creedence Clearwater Revival

Toca una Canción al Azar de Creedence Clearwater Revival
D
A
G