Lodi
Creedence Clearwater Revival
Acordes

Subida por Erick49147
Álbum: Green River ( 1969)


Más Versiones
Ver. 2 Ver. 3 Ver. 4 Ver. 5 Ver. 6
+A
-A
 Intro:

Bb F Eb Bb
|------------|--------------|--------------|----------||
|-3--3----4--|-4/6-6--6-3--|-4--4--4---4--|-3--------||
|-3--3----5--|-5/7-7--7-3--|-5--5--5p3-3--|-3--------||
|------------|--------------|--------------|----------||
|------------|--------------|--------------|----------||
|------------|--------------|--------------|----------||

Verse:

Bb Eb Bb
Just about a year ago, I set out on the road.
Gm Eb F
Seekin' my fame and fortune, I'm lookin' for a pot of gold.
Bb Gm Eb Bb
Things got bad and things got worse, I guess you know the tune,
F Eb Bb
Oh Lord, I'm stuck in Lodi again.
|------------------------|----------------||
|------------------------|----------------||
|----3-5-5b6-------5-3---|-3--------------||
|--5-------------------5-|------5-3---3---||
|------------------------|----------5-----||
|------------------------|----------------||

Verse:

Bb Eb Bb
I boarded on the Greyhound, and I'm walkin' there, by the road.
Gm Eb F
I was just passin' through, it must be seven months or more.
Bb Gm Eb Bb
I ran out of time and money, it looks like the two were friends.
F Eb Bb
Oh Lord, I'm stuck in Lodi again.
|------------------------|----------------||
|------------------------|----------------||
|----3-5-5b6-------5-3---|-3--------------||
|--5-------------------5-|------5-3---3---||
|------------------------|----------5-----||
|------------------------|----------------||

Solo:

Bb F Eb Bb
|------------|--------------|--------------|----------|
|-3--3----4--|-4/6-6--6-3--|-4--4--4---4--|-3--------|
|-3--3----5--|-5/7-7--7-3--|-5--5--5p3-3--|-3--------|
|------------|--------------|--------------|----------|
|------------|--------------|--------------|----------|
|------------|--------------|--------------|----------|

Bb F Eb Bb
|------------|--------------|--------------|----------||
|-3--3----4--|-4/6-6--6-3--|-4--4--4---4--|-3--------||
|-3--3----5--|-5/7-7--7-3--|-5--5--5p3-3--|-3--------||
|------------|--------------|--------------|----------||
|------------|--------------|--------------|----------||
|------------|--------------|--------------|----------||

Verse:

Bb Eb Bb
A man from a magazine, who said I was on my way.
Gm Eb F
But somewhere I lost connection, I ran out of songs to play.
Bb Gm Eb Bb
I planned many times of one-night stands, it looks like my plans fell through.
F Eb Bb
Oh Lord, I'm stuck in Lodi again.
|------------------------|----------------||
|------------------------|----------------||
|----3-5-5b6-------5-3---|-3--------------||
|--5-------------------5-|------5-3---3---||
|------------------------|----------5-----||
|------------------------|----------------||

Verse:

C F C
If I only had a dollar for every song I've sung.
Am F G
Or every time I had to play while people slapped their tongue.
C Am F C
I know I'll catch the next train, back to where I live.
G F C
Oh Lord, I'm stuck in Lodi again.
|------------------------|----------------||
|------------------------|----------------||
|----3-5-5b6-------5-3---|-3--------------||
|--5-------------------5-|------5-3---3---||
|------------------------|----------5-----||
|------------------------|----------------||
G F C
Oh Lord, I'm stuck in Lodi again.
|------------------------|----||
|------------------------|----||
|----3-5-5b6-------5-3---|-3--||
|--5-------------------5-|----||
|------------------------|----||
|------------------------|----||

ACORDES PARA GUITARRA

PIANO UKELELE
Bb
F
Eb
Gm
C
Am
G


COMENTARIOS

Aún no hay comentarios,

¡escribe el primero!

Escribe una pregunta, duda o comentario sobre esta canción, te responderemos a la brevedad.

Las más tocadas de Creedence Clearwater Revival

Toca una Canción al Azar de Creedence Clearwater Revival
Bb
F
Eb
Gm
C
Am
G