Compartir


Imprimir FAQ
+A
-A

Texto

Desplazamiento

Transportador

Color de Fondo

Archivos

-A
+A
INTRO:

E|-12p9/7p0------0-----0--------12p9/7p0------0-----0-----------12p9/7p0------0-----0-----|  
A|-0~~---0~~---5----2-----------0~~---0~~---5----2--------------0~~---0~~---5----2--------|   
D|----------------------------------------------------------------------------------------|
G|----------------------------------------------------------------------------------------|   
B|----------------------------------------------------------------------------------------|   
E|----------------------------------------------------------------------------------------|  

E|---0---0---0---0---0---0---0----0--------------|  
A|-----------------------------------------------|   
D|-----------------------------------------------|
G|-6---4---2---4---6---4---2---2-----2-----------|   
B|-----------------------------------------------|   
E|-----------------------------------------------|


E
Hey, tonight, Gonna be tonight,
Don't you know i'm flyin'
A              E
Tonight, tonight.

E
Hey, c'mon, Gonna chase tomorrow
A              E
Tonight, tonight.

B                   F#
Gonna get it to the rafters,
B
Watch me now.
B                F#
Jody's gonna get religion
B
All night long.

E
Hey, c'mon, Gonna hear the sun
A             E
Tonight, tonight.

SOLO -  
     
 
                A                       E
E|-9------12-------7-----0~~-------0-----0------0--------|  
A|---0~~------0~~-----0----------5-----2-----0-----------|   
D|--------------------------------------------------1----|
G|-------------------------------------------------------|   2 vezes  
B|-------------------------------------------------------|   
E|-------------------------------------------------------|  

* Depois de tocar o solo acima 2 vezes, toque A por 2 tempos e E por 2 tempos duas vezes


B                   F#
Gonna get it to the rafters,
B
Watch me now.
B                F#
Jody's gonna get religion
B
All night long.     Aaaah!

E
Hey, tonight, Gonna be tonight,
Don't you know i'm flyin'
A             E
Tonight, tonight.
A             E
Tonight, tonight.


SOLINHO FINAL: 

E|-9-------12-------7------0~~--------0---0---0---0---0---0---0----0-------------------|  
A|----0~~------0~~------0--------------------------------------------------------------|   
D|-------------------------------------------------------------------------------------|
G|----------------------------------6---4---2---4---6---4---2---2-----2----------------|   
B|-------------------------------------------------------------------------------------|   
E|-------------------------------------------------------------------------------------|
By - TSLASHLLD-EDUARDO

Video Clip de Hey Tonight


ACORDES PARA GUITARRA

PIANO UKELELE
E
A
B
F#


TOP 20: Las más tocadas de Creedence Clearwater Revival


Acordes

Cerrar
E
A
B
F#

15.13

x

223