Don't Look Now
Creedence Clearwater Revival
Acordes

Subida por cvilla
Álbum: Willy and the Poor Boys ( 1969)


Más Versiones
Ver. 2 Ver. 3 Ver. 4 Ver. 5
+A
-A
Introdução:E

A E
Who'll take the coal from the mine?
B7 E
Who'll take the salt from the earth?
A E
Who'll take the leaf and grow it to a tree?
A B7 E
Don't look now, it ain't you or me

Verse 2:
E A E
Who'll work the fields with his hands?
B7 E
Who'll put his back to the plow?
A E
Who'll take the mountain and give it to the sea?
A B7 E
Don't look now, it ain't you or me

Bridge:
A E
Don't look now, someone's done your starvin'
A B7 riff: A|-2-1-0-|
Don't look now, someone's done your prayin' too

Verse 3:
E A E
Who'll make the shoes for your feet?
B7 E
Who'll make the clothes that you wear?
A E
Who'll take the promise that you don't have to keep?
A B7 E
Don't look now, it ain't you or me

acordes: E A E B7 E A E A B7 E

e|-4---4-4--2--0--2------|-4---4-4--2--0--2---4-|
B|-5---5-5--4--2--4---5--|-5---5-5--4--2--4---5-|
G|--------------------4--|----------------------|
D|-----------------------|----------------------|
A|-----------------------|----------------------|
E|-----------------------|----------------------|

e|------------------------------------------------------|
B|------------------------------------------------------|
G|------------------------------------------------------|
D|------------------------------------------------------|
A|------------------------------------------------------|
E|-5--5-5---5--5-5---0--0-0---0--0-0---5--5-5-6-7--2~-0-|

A E
Don't look now, someone's done your starvin'
A B7 riff: A|-2-1-0-|
Don't look now, someone's done your prayin' too

Verse 4:
E A E
Who'll take the coal from the mine?
B7 E
Who'll take the salt from the earth?
A E
Who'll take the promise that you don't have to keep?
A B7 E
Don't look now, it ain't you or me

acordes:E A B7 E

e|-4---4-4--2--0--2-----|
B|-5---5-5--4--2--4---5-|
G|--------------------4-|
D|----------------------|
A|----------------------|
E|----------------------|

ACORDES PARA GUITARRA

PIANO UKELELE
E
A
B7


COMENTARIOS

Aún no hay comentarios,

¡escribe el primero!

Escribe una pregunta, duda o comentario sobre esta canción, te responderemos a la brevedad.

Las más tocadas de Creedence Clearwater Revival

Toca una Canción al Azar de Creedence Clearwater Revival
E
A
B7