Compartir


Imprimir FAQ
+A
-A

Texto

Desplazamiento

Transportador

Color de Fondo

Archivos

-A
+A
Tabbed By Andrew Koch (*)

Riff 1
-----------------------------------------|
-5--3--0---------------------------------|
----------2--0---------------------------|
----------------2-----------------0--2---|
-------------------0--0-----0--2---------|
-------------------------3---------------|

Riff 2
-----------------------------------------|
-----------------------------------------|
-----------------------------------------|
-------5-------------------2-------------|
---------7-7-----------------------------|
-0-5-7----------5h7--5-3-0---------------|

E7 (with Riff 2)
When the sky is gray
And the moon is hate
I'll be down to get you.
Roots of earth will shake.

CHORUS:
C        E7
C           E7
Knocking at your door;
C             E7
Come and take my hand.  into Riff 1

Burn away the goodness;
You and I remain.
Did you see the last war?
Well, here I am again.

CHORUS

Solo
------------------------------------------|
12b14--8h10p8-------10b12-----------------|
---------------9-----------8h9p8h9--------| 2x
------------------------------------------|
------------------------------------------|
------------------------------------------|

-------------------------------------------------|
12---8h10p8-----12---8h10p8-------12---8h10p8----|
-------------------------------------------------|
-------------------------------------------------|
-------------------------------------------------|
-------------------------------------------------|

-------------------------------------------|
-5--3--0-----------------------------------|
----------2--0-----------------------------|
----------------2--------------------------|
-------------------2--0-----2--0-----------|
-------------------------0--------0--------|


I can set you free,
Make you rich and wise.
We can live forever;
Look into my eyes.

CHORUS

Solo 2

Mm-mm-mm-mm....
--------------------------------------------|
12b14---8h10p8--------12b14---8h10p8--------|
-----------------9--------------------------| 3x
--------------------------------------------|
--------------------------------------------|
--------------------------------------------|

-----------------------------------------|
12b14--8h10p8----------------------------|
----------------------9------------------|
-----------------------------------------|
-----------------------------------------|
-----------------------------------------|

-----------------------------------------|
-5--3--0---------------------------------|
----------2--0---------------------------|
----------------2-----------------0--2---|
-------------------0--0-----0--2---------|
-------------------------3---------------|

----------------------------------------|
12b14--8h10p8---------------------------|
----------------------9-----------------|
----------------------------------------| repeat till fade out
----------------------------------------|
----------------------------------------|

Video Clip de Sinister Purpose


ACORDES PARA GUITARRA

PIANO UKELELE


TOP 20: Las más tocadas de Creedence Clearwater Revival


Acordes

Cerrar

23.16

x

99