Cotton Fields
Creedence Clearwater Revival
Acordes

Subida por Pelonete213
Álbum: Willy and the Poor Boys ( 1969)


Más Versiones
Ver. 2 Ver. 3 Ver. 4 Ver. 5 Ver. 6
+A
-A

Chords Used:

A Asus2 D Dsus2 E E7

E|--0--0--------2--2-------0---------0--0--|
B|--2--0--------3--3-------3---------0--4--|
G|--2--2--------2--2-------2---------1--1--|
D|--2--2--------0--4-------0---------2--2--|
A|--0--0--------x--x-------x---------2--2--|
E|--x--x--------x--x-------x---------x--x--|


Cotton Fields
CCR

E|-----------------------------0-----0------------------------|
B|------------------0------5b-----2-----2-----5--5---3--3--2--|
G|------2--2--2--2----2-----------------------4--4---4--2--2--|
D|--2-4----------------------------------------------------2--|
A|------------------------------------------------------------|
E|------------------------------------------------------------|

When I was a little bitty baby
D A
My mama would rock me in the cradle,
Asus2 A E E7 E
In them old cotton fields back home;

A Asus2 A Asus2 A
It was down in Louisiana,
Asus2 A D A
Just about a mile from Texarkana,
Asus2 A E A A
In them old cotton fields back home.

D Dsus2 D
Oh, when them cotton bolls get rotten
A Asus2 A
You cant pick very much cotton,
Asus2 A E E7 E
In them old cotton fields back home.

A Asus2 A Asus2 A
It was down in Louisiana,
D A
Just about a mile from Texarkana,
Asus2 A E A A (Strum Once)
In them old cotton fields back home.


When I was a little bitty baby
D A
My mama would rock me in the cradle,
Asus2 A Asus2 A E E7 E
In them old cotton fields back home;

A Asus2 A Asus2 A
It was down in Louisiana,
Asus2 A D A
Just about a mile from Texarkana,
Asus2 A E A A
In them old cotton fields back home.

D Dsus2 D
Oh, when them cotton bolls get rotten
A Asus2 A
You cant pick very much cotton,
Asus2 A Asus2 A E E7 E
In them old cotton fields back home.

A Asus2 A Asus2 A
It was down in Louisiana,
Asus2 A D A
Just about a mile from Texarkana,
Asus2 A E A A
In them old cotton fields back home.

Solo


When I was a little bitty baby
D A
My mama would rock me in the cradle,
Asus2 A Asus2 A E E7 E
In them old cotton fields back home;

A Asus2 A Asus2 A
It was down in Louisiana,
Asus2 A D A
Just about a mile from Texarkana,
Asus2 A E A A
In them old cotton fields back home.
A E A A
In them old cotton fields back home.

ACORDES PARA GUITARRA

PIANO UKELELE
A
Asus2
D
Dsus2
E
E7


COMENTARIOS

Aún no hay comentarios,

¡escribe el primero!

Escribe una pregunta, duda o comentario sobre esta canción, te responderemos a la brevedad.

Las más tocadas de Creedence Clearwater Revival

Toca una Canción al Azar de Creedence Clearwater Revival
A
Asus2
D
Dsus2
E
E7