Compartir


Imprimir FAQ
+A
-A

Texto

Desplazamiento

Transportador

Color de Fondo

Archivos

-A
+A
 --------------
 --3----3------
 --2----2------
 --0----0------
 --------------
 --------------
 --------------

e    -------------------|---------------------------|---------------
B    ---------1------3--|---------------------------|-----1-------3-
G    ------------2------|-1---0---------------------|---------2-----
D    -------------------|--------3---0------------0-|---------------
A    -------------------|----------------0----3-----|---------------
E    -----0-------------|---------------------------|--0------------

------1-----------------|-----------------------------------------
--3---1---3--------1---3|------1--------3-------------------------
--2-------2----2--------|---------2---------1--0------------------
------------------------|-------------------------3--0--------0---
------------------------|-------------------------------0--3------
------------------------|--0--------------------------------------

--------------------------1------------------------------------------
--------1-------3---3-----1----3----3--------1---3-------1--------3--
--------2-------2---2-----2----2----2-----2------------------2-------
---0-----------------------------------------------------------------
---------------------------------------------------------------------
-----------------------------------------------------0---------------

play the little rhythm figure right here(on top)
----------------------------*-----------------------------------
-------------------------------1-------3-----------------------
-----1--0--------------------------2-------1--0----------------
-----------3--0--------0-------------------------3--0-------0--
-----------------0--3---------------------------------0--3-----
----------------------------0----------------------------------

whoa! thought it was night
thought i heard a rum

---1------------------------------------1-----------------------------
---------3-------1--3--3----------------------3-------3--(3)--1-------
---2-----2----2-------------------------2--------2---------------2----
----------------------------------------------------------------------
----------------------------------------------------------------------
0-------------------------0---3b----0---------------------------------


this is as far as i got but ill find out the rest and post it

Video Clip de Run Through The Jungle


ACORDES PARA GUITARRA

PIANO UKELELE


TOP 20: Las más tocadas de Creedence Clearwater Revival


Acordes

Cerrar

05.57

x

146