Travellin Band
Creedence Clearwater Revival
Acordes

Subida por Maxwell


Más Versiones
Ver. 2

Cambiar Cifrado
Americano Latino

Cambiar Tonalidad
-1 +1

Partir Pantalla Imprimir FAQ

+A
-A
Album: Chronicle
Tabber: Steph
email: *

Intro
C# B F# F#
G----------3--|-----------1-|--------------|-------------|
D----33-6-----|----11--4----|------------1-|-----------1-|
A-44----------|-22----------|----11--4-----|----11--4----|
E-------------|-------------|-22-----------|-22----------|

Verse
F# F# F# F#
G--------------|-------------|-------------|-------------|
D--------------|-------------|-------------|-------------|
A--------------|-------------|-------------|-------------|
E-2------------|-2-----------|-2-----------|-2-----------|

Verse
B B F# F#
G------------1-|-----------1-|-------------|-------------|
D----11--4-----|----11--4----|-----------1-|-----------1-|
A-22-----------|-22----------|----11--4----|----11--4----|
E--------------|-------------|-22----------|-22----------|

C# B C# F#
G|----------3--|-----------1-|-----------3-|-------------|
D|----33--6----|----11--4----|----33-6-----|-----------1-|
A|-44----------|-22----------|-44----------|----11--4----|
E|-------------|-------------|-------------|-22----------|

Solo

B F# B c#
G|-----------1-2-3-------------------------------------|------------|
D|---1-2-3-4-----------------4-2-1---------------------|*----------*|
A|-2------------------1-2-3--------4-2---------2-------|*-44444444-*|
E|------------------2-------------------5-4-2----5-4-2-|------------|




ACORDES PARA GUITARRA

PIANO UKELELE


COMENTARIOS

Aún no hay comentarios,

¡escribe el primero!

Escribe una pregunta, duda o comentario sobre esta canción, te responderemos a la brevedad.

Las más tocadas de Creedence Clearwater Revival

Toca una Canción al Azar de Creedence Clearwater Revival