Up Around The Bend
Creedence Clearwater Revival
Acordes

Subida por larry
Álbum: Cosmo’s Factory ( 1970)


Más Versiones
Ver. 2 Ver. 3 Ver. 4 Ver. 5 Ver. 6
+A
-A
(intro)
D
E|-----------------10~~~~--------------|----------------10~~~~--------------|
B|------------------------10------10---|-----------------------10------10---|
G|-----------9/11-------------11-------|----------9/11-------------11-------|
D|----0--------------------------------|---0--------------------------------|
A|-------------------------------------|------------------------------------|
E|-------------------------------------|------------------------------------|

A D
E|----------------5~~~~~----------------|---------------10~~~~~-------------||
B|-----------------------5-------5------|----------------------10------10---||
G|----------4/6--------------6----------|---------9/11-------------11-------|| (2x)
D|--------------------------------------|---0-------------------------------||
A|---0----------------------------------|-----------------------------------||
E|--------------------------------------|-----------------------------------||

(verso 1)
D
E|----------------------------------|----------------------------------------|
B|---------------3--------------3---|---(3)----------3------3-------3--------|
G|-------2-h-4---2------2-h-4---2---|---(2)---2-h-4--2----------4---2--------|
D|---0------------------------------|----------------------------------------|
A|----------------------------------|----------------------------------------|
E|----------------------------------|----------------------------------------|
There's a place up ahead and I'm go - in'

A D
E|----------------------------------|------------------------2-------2-------|
B|----------------2------2------2---|---(2)---2-p-0---3------3-------3-------|
G|-------2-h-4----2------2------2---|---(2)---2--(2)--2----------2h4---------|
D|----------------------------------|----------------------------------------|
A|---0------------------------------|----------------------------------------|
E|----------------------------------|----------------------------------------|
Just as fast as my feet can fly

D
E|----------------------------------|----------------------------------------|
B|---------------3--------------3---|---(3)----------3------3-------3--------|
G|-------2-h-4----------2-h-4-------|--------2-h-4--------------4---2--------|
D|---0------------------------------|----------------------------------------|
A|----------------------------------|----------------------------------------|
E|----------------------------------|----------------------------------------|
Come a - way come a - way if you're goin'

A D
E|----------------------------------|----------------------------------------|
B|----------------2------2------2---|---(2)---2-p-0----3------3---3---3------|
G|-------2-h-4----2------2------2---|---(2)---2--(2)---2------2---2---2------|
D|----------------------------------|----------------------------------------|
A|---0------------------------------|----------------------------------------|
E|----------------------------------|----------------------------------------|
Leave the sink - in' ships be - hind


(refrão)
G D A
E|----3-------3-------2-------2-------|--------------------------------------|
B|----0-------0-------3-------3-------|----2---2---2---2---2---2---2---2-----|
G|----0-------0-------2-------2-------|----2---2---2---2---2---2---2---2-----|
D|----0-------0-------0-------0-------|----2---2---2---2---2---2---2---2-----|
A|----2-------2-----------------------|----0---0---0---0---0---0---0---0-----|
E|----3-------3-----------------------|--------------------------------------|
Come on the ris - in' wind We're

G D A
E|----3-------3-------2-------2-------|----------------0-------0-------------|
B|----0-------0-------3-------3-------|----2-------2---2-------2---2---2-----|
G|----0-------0-------2-------2-------|----2-------2---2-------2---2---2-----|
D|----0-------0-------0-------0-------|----2-------2---2-------2---2---2-----|
A|----2-------2-----------------------|----0-------0---0-------0---0---0-----|
E|----3-------3-----------------------|--------------------------------------|
goin' up a - round the bend Ooh!

A
E|-----------------------------0---0----|
B|---(2)---2---2---2---2---2---2---2----|
G|---(2)---2---2---2---2---2---2---2----|
D|---(2)---2---2---2---2---2---2---2----|
A|---(0)---0---0---0---0---0---0---0----|
E|--------------------------------------|

(solo)
E|------------------------------------|-------------------0------------------|
B|----------------3---5b7----5h3------|--------------------------------------|
G|----0------2/4-----------------4----|----2------4-b-6--(6)--pb6-b-4---2----|
D|------------------------------------|--------------------------------------|
A|------------------------------------|--------------------------------------|
E|------------------------------------|--------------------------------------|

E|------------------------------------|-------------------0------------------|
B|----------------3---5b7----5h3------|--------------------------------------|
G|----0------2/4-----------------4----|----2------4-b-6--(6)--pb6-b-4---2----|
D|------------------------------------|--------------------------------------|
A|------------------------------------|--------------------------------------|
E|------------------------------------|--------------------------------------|
Ooh!

E|------------------------------------|
B|------------------------------------|
G|----4b6----4b6----4b6b4---2---------|
D|------------------------------------|
A|------------------------------------|
E|------------------------------------|

(guitarra 2)
E|------------------------12b14--12p10------|---10~~~~~~~~~~~~~~~~~~~~~~~~---|
B|-------------------------------------12---|--------------------------------|
G|------------------------------------------|--------------------------------|
D|------------------------------------------|--------------------------------|
A|------------------------------------------|--------------------------------|
E|------------------------------------------|--------------------------------|
...big red tree There's a place up ahead

E|------------------------12b14--12p10------|--------------------------------|
B|-------------------------------------12---|---10~~~~~~~~~~~~~~~~~~~~~~~~---|
G|------------------------------------------|--------------------------------|
D|------------------------------------------|--------------------------------|
A|------------------------------------------|--------------------------------|
E|------------------------------------------|--------------------------------|
and I'm go - in' Come along, come along...

D

E|----------------5~~~-----------5~~~|--(5)----------5~~~-------------------|
B|--------6-h-7----------6-h-7-------|-------6-h-7----------7---------------|
G|-----------------------------------|--------------------------------------|
D|-----------------------------------|--------------------------------------|
A|-----------------------------------|--------------------------------------|
E|-----------------------------------|--------------------------------------|
Do do doo do

E|-----------------5~~~-----------5~~~|--(5)--------------------------------||
B|---------6-h-7----------6-h-7-------|-------7----------------------------.||
G|------------------------------------|-----------------7~~~----------------||
D|------------------------------------|-------------------------------------||
A|------------------------------------|------------------------------------.||
E|------------------------------------|-------------------------------------||
Do do doo do

ACORDES PARA GUITARRA

PIANO UKELELE
D
A
G


COMENTARIOS

Aún no hay comentarios,

¡escribe el primero!

Escribe una pregunta, duda o comentario sobre esta canción, te responderemos a la brevedad.

Las más tocadas de Creedence Clearwater Revival

Toca una Canción al Azar de Creedence Clearwater Revival
D
A
G