What Are You Gonna Do (Acordes)

Creedence Clearwater Revival

Full Álbum: Mardi Gras (1972)
Subida por Angel

Compartir


Imprimir FAQ
+A
-A

Texto

Desplazamiento

Transportador

Color de Fondo

Archivos

-A
+A
Intro/Refrao/Solo
G|--------------------------------------|
D|--------------------------------------|
A|----3---3333-----5555--3--33--3--3---3|
E|--------------3-------------13----135-|

Verso 
G|--------------------------------------|
D|--------------------------------------|
A|33333-------------33333----33--3------|
E|---------33330---------------13-------|



Intro: x2
Verso: x4
Refrao: x2
Verso: x4
Refrao: x2
Solo: x4
Refrao: x2
Verso: x4 
Refrao: x6

Video Clip de What Are You Gonna Do


ACORDES PARA GUITARRA

PIANO UKELELE


TOP 20: Las más tocadas de Creedence Clearwater Revival


Acordes

Cerrar

06.07

x

41