Meu Bem

Detonautas

Acordes

Subida por ManuelWLongoria


Más Versiones
Ver. 2 Ver. 3 Ver. 4 Ver. 5 Ver. 6

Cambiar Cifrado
Americano Latino

Cambiar Tonalidad
-1 +1

Partir Pantalla Imprimir FAQ

+A
-A
Mudar para Português

Ver solo la LETRA
E|-----------------------------------------------------------------------------|
B|------------------------------------------------------------------5--3-------|
G|---5---4---2---0---2/4-------------------5---4---2---0---2/4------------2/4--|
D|-------------------------2--5---7---5-------------------------2--------------|
A|-----------------------------------------------------------------------------|
E|-----------------------------------------------------------------------------|

E|--------------------------------------------0-----0-----0-------0------------|
B|-------------------------------------------3/5---5/8---8/10---10/12----------|
G|---5---4---2---0---2/4-------------------------------------------------------|
D|-------------------------2--0------2---5-------------------------------------|
A|-------------------------------4---------------------------------------------|
E|-----------------------------------------------------------------------------|

no 2/4 vai da a palhetada meio que no 2 mais vá direto pro 4 e no 1/2 a mesma coisa :P

Em
Tenho a impressão de que perdia.

C#5
Cada dia a sua companhia

C7+
Dia a dia essa monotonia

Em
Sem a sua compreensão de nada

C#5
Nosso dia virou madrugada

C7+ Am7
E eu ainda me preocupo com você

Bm6 Am7
Nada mudou nosso canto

Bm6 Am7
Nem mudará por enquanto

Am G/B C7+
Vivo pensando em você (2x)

Em
Meu Bem

G
Aqui pra quem falou!

A Em
O dia clareou a madrugada

NUEVO FORO DE MÚSICA

¿Tienes alguna duda, consulta, pregunta, consejo o algo para compartir sobre esta canción?

¡Puedes abrir un hilo en el FORO para que la comunidad te ayude! Hacer una pregunta

ACORDES PARA GUITARRA

PIANO UKELELE
Em
C#5
Cmaj7
Am7
Bm6
Am
G/B
G
A


Las más tocadas de Detonautas

Em
C#5
Cmaj7
Am7
Bm6
Am
G/B
G
A