Nada Vai Mudar

Detonautas

Acordes

Subida por Blanca


Más Versiones
Ver. 2 Ver. 3 Ver. 4 Ver. 5 Ver. 6

Cambiar Cifrado
Americano Latino

Cambiar Tonalidad
-1 +1

Partir Pantalla Imprimir FAQ

+A
-A
Mudar para Português

Ver solo la LETRA
Intro: Em  D  Bm  C7+

Em D Bm C7M Em D Bm C7M
E|---------------------------------------------------------------
B|---------------------------------------------------------------
G|----------------------------0-----0----------------------------
D|-----5-4------------------0-----2--2-------5-4-------5/7-9-5--- (2x)
A|-5h7-----5---------5----2-----3-----3--5h7------5--------------
E|-------------7-------5-----------------------------------------

Em D
Olhe eu to sem sono e já faz mais de um mês
Bm C
Eu fico aqui passando em claro só pensando em você
Em D
Aqui ta frio ta sinistro eu não conheço ninguém
Bm C
A vida é mesmo complicada demais
Em D
Lembro das palavras que vc me falou
Bm C
E dos conflitos que eu causei por ser do jeito que eu sou
Em D
A gente ás vezes precisava ser um pouco melhor
Bm C
Eu deixo o tempo resolver dessa vez

( Em D Bm C7+ )
Aaaahhhhh go!
Em D Bm C7+

D C G
Vou te encontrar ou te esquecer
D C G
Mudo meus planos pra ter você
D C G
Vou te encontrar ou te esquecer
D C D G
Mudo meus planos pra ter você

E|--------------------3----|
A|--------------------3----|
D|--------------------0----|
G|-----4-5----4-5-----0----|
B|--5------3------2-0-2----|
E|--------------------3----|

(Em D Bm C) (4x)

Em D Bm C
Nada vai mudar enquanto a gente resistir em ver
Em D Bm C
Que as coisas são sempre assim entre o que eu quero e o que vc crê
Em D Bm C Em D Bm C
Nada vai mudar enquanto a gente resistir... Em ver...

( Em D Bm C7+ )
Aaaahhhhh
Em D Bm C7+

D C G
Vou te encontrar ou te esquecer
D C G
Mudo meus planos pra ter você
D C G
Vou te encontrar ou te esquecer
D C G
Mudo meus planos pra ter você

Em D Bm C
Nada vai mudar enquanto a gente resistir em ver
Em D Bm C
Que as coisas são sempre assim entre o que eu quero e o que você crê
Em D Bm C Em D Bm C
Nada vai mudar enquanto a gente resistir... Em ver...

( Em D/F# G A ) (2x)

( Em D/F# G A B7 )

( Em D Bm C Em D Bm C7+)

D C G
Vou te encontrar ou te esquecer
D C G
Mudo meus planos pra ter você
D C G
Vou te encontrar ou te esquecer
D C G
Mudo meus planos pra ter você
Em D C G
Mudo meus planos pra ter você

E|--------------------3----|
A|--------------------3----|
D|--------------------0----|
G|-----4-5----4-5-----0----|
B|--5------3------2-0-2----|
E|--------------------3----|

NUEVO FORO DE MÚSICA

¿Tienes alguna duda, consulta, pregunta, consejo o algo para compartir sobre esta canción?

¡Puedes abrir un hilo en el FORO para que la comunidad te ayude! Hacer una pregunta

ACORDES PARA GUITARRA

PIANO UKELELE
Em
D
Bm
Cmaj7
Cmaj7
C
G
D/F#
A
B7


Las más tocadas de Detonautas

Em
D
Bm
Cmaj7
Cmaj7
C
G
D/F#
A
B7