O Amanhã

Detonautas

Acordes

Subida por walter1967


Más Versiones
Ver. 2 Ver. 3 Ver. 4 Ver. 5 Ver. 6

Cambiar Cifrado
Americano Latino

Cambiar Tonalidad
-1 +1

Partir Pantalla Imprimir FAQ

+A
-A
Mudar para Português

Ver solo la LETRA
[Intro]  Bb F Gm  Bb C Eb

E|----------------------------------------------------------------|
B|--6-6-------------6-6-6--|--------6-6-6-------------------------|
G|--3-3--5--3-5-3---3-3-3--5-3-5-3--3-3-3--5--3-5-3---5/777-555-3-|
D|--3-3-------------3-3-3--|--------3-3-3-------------------------|
A|----------------------------------------------------------------|
E|----------------------------------------------------------------|

Gm Eb
Quando vem o amanhã incerto
Gm Eb
E a certeza me faz ver o inverso

[Riff 1]

E|-10-8-66--8-6-5-----------------|
B|---------8------8---------------|
G|--------------------------------|
D|--------------------------------|
A|--------------------------------|
E|--------------------------------|

Gm Eb
Já não tenho o mesmo medo de me repetir
Gm Eb
A verdade disso tudo é o que me faz seguir

Bb F Gm
Não vou mudar em vão
Bb F Eb
Pra que mentir
Se os dias vem e vão...e não
Bb F Eb
Me vejo aqui

[Solo] Gm Eb


E|--------------------------|--------------------8--5-------|
B|----8-6~-------8-6-10-6---|-----8-6--------8-6------------|
G|--7----------7---------7--|---7-----7----7-----------7----|
D|--------------------------|-------------------------------|
A|--------------------------|-------------------------------|
E|--------------------------|-------------------------------|

Gm Eb
E quando vem o amanhã incerto
Gm Eb
E a certeza me faz ver o inverso
Gm Eb
Já não tenho mesmo medo de me repetir
Gm Eb
A verdade disso tudo é o me faz seguir

Bb F Gm
Não vou mudar em vão
Bb F Eb
Pra que mentir
Bb F Gm
Se os dias vem e vão...e não
Bb F Eb
Me vejo aqui

[Solo] Dm7 Cm7

E|-----------------------------------------15--------|
B|-8--6-8-10-10^10p11-10p11-13^-13^-13/15------18^---|
G|---7-----------------------------------------------|
D|---------------------------------------------------|
A|---------------------------------------------------|
E|---------------------------------------------------|

Dm7
Passo a passo vou na forma
Descompasso acelerando
Cm7
A noite toda 24 horas
Não me fazem crer
Dm7
Que a vida inteira num segundo
Cm7
Na maneira que esse mundo imundo
De poeira me fez perceber
Dm7
Que tudo não passou de um sonho
Cm7 Dm7
Todo tolo e o consolo é perceber que o amanhã existe
Eb
E que eu posso ser feliz sem me entregar

Bb F Gm
Não vou mudar em vão
Bb F Eb
Pra que mentir
Bb F Gm
Se os dias vem e vão...e não
Bb F Eb
Me vejo aqui

ACORDES PARA GUITARRA

PIANO UKELELE
Bb
F
Gm
C
Eb
Dm7
Cm7


Las más tocadas de Detonautas

Bb
F
Gm
C
Eb
Dm7
Cm7