Você Me Faz Tão Bem

Detonautas

Acordes

Subida por PianistaYolla


Más Versiones
Ver. 2 Ver. 3 Ver. 4 Ver. 5 Ver. 6

Cambiar Cifrado
Americano Latino

Cambiar Tonalidad
-1 +1

Partir Pantalla Imprimir FAQ

+A
-A
Mudar para Português

Ver solo la LETRA
Intro 2x: D7M(9) E
E|---------------------------------------------------|
B|-86----86~---86----86~-------------------------|
G|-----3~------------3~------------------------------|
D|---------------------------------------------------|
A|---------------------------------------------------|
E|---------------------------------------------------|

F#m E
Quando eu me perco é quando eu te encontro
F#m E
Quando eu me solto seus olhos me vêem
F#m E
Quando eu me iludo é quando eu te esqueço
F#m E
Quando eu te tenho eu me sinto tão bem
F#m E
Você me fez sentir de novo o que eu

Solo:
(Primeira parte)
F#m E5(9)
E|-------------------------3---------------|
B|-----3------3---------1------------------|
G|---3----------3--------------------------|
D|-5-----5--5-----5---3--------------------|
A|-----------------------------------------|
E|-----------------------------------------|

( violão solo - substituir a forma de F#m pela de F#m7(11) )

D7M(9)
Já não me importava mais
E
Você me faz tão bem
D7M(9) E
Você me faz, você me faz tão bem

(Intro)

F#m E
Quando eu te invado de silêncio
F#m E
Você conforta a minha dor com atenção
F#m E
E quando eu durmo no seu colo
F#m E
Você me faz sentir de novo
D7M(9)
O que eu já não sentia mais

Solo:
(Primeira parte)
F#m E5(9)
E|-------------------------3---------------|
B|-----3------3---------1------------------|
G|---3----------3--------------------------|
D|-5-----5--5-----5---3--------------------|
A|-----------------------------------------|
E|-----------------------------------------|

( violão solo - substituir a forma de F#m pela de F#m7(11) )

Refrão:
E
Você me faz tão bem
D7M(9) E
Você me faz, você me faz tão bem
D7M(9) E
Você me faz, você me faz tão bem
D7M(9) E
Você me faz, você me faz tão bem

Solo:
(Refrão)
E|-----------------------------------------|
B|-86----86~---86----86~---------------|
G|-----3~------------3~--------------------|
D|-----------------------------------------|
A|-----------------------------------------|
E|-----------------------------------------|

(Depois do solo)
F#m E5(9)
E|-------------------------3---------------|
B|-----3------3---------1------------------|
G|---3----------3--------------------------|
D|-5-----5--5-----5---3--------------------|
A|-----------------------------------------|
E|-----------------------------------------|

F#m
Não tenha medo
F#m E
Não tenha medo desse amor
F#m
Não faz sentido
F#m E
Não faz sentido não mudar
Esse amor

D7M(9) E
Você me faz, você me faz tão bem
D7M(9) E
Você me faz, você me faz tão bem
D7M(9) E
Você me faz, você me faz tão bem

ACORDES PARA GUITARRA

PIANO UKELELE
Dmaj9
E
F#m
Eadd9


Las más tocadas de Detonautas

Dmaj9
E
F#m
Eadd9