Corazón Mañoso

Duo Ayacucho

Acordes

Subida por danielcaripa


Más Versiones
Ver. 2 Ver. 3

Cambiar Cifrado
Americano Latino

Cambiar Tonalidad
-1 +1

Partir Pantalla Imprimir FAQ

+A
-A


Ver solo la LETRA
Intro:   

1 ||-------------8-------------------8----8-------------------
2 ||--------------10-10-8----8-10-10---10---8-----------------
3 ||------7-7-7-----------10------------------10--------------
4 ||----7-----------------------------------------------------
5 ||----------------------------------------------------------
6 ||----------------------------------------------------------


1 ||-------------8----------------------8---8-----------------
2 ||--------------10-10-8----8-10-10-10--10--8---7-7----------
3 ||------7-7-7-----------10------------------10--------------
4 ||----7-----------------------------------------------------
5 ||----------------------------------------------------------
6 ||----------------------------------------------------------


1 ||----------------0-1-3-0-----------------------------------
2 ||------0-2-3-2-3---------2-3-----------------------0-2-3---
3 ||----2-----------------------3-2-0-----------0-1-2---------
4 ||----------------------------------3-2-0-2-3---------------
5 ||----------------------------------------------------------
6 ||----------------------------------------------------------

LA REm LA REm

Verso 1:

REm FA
Aunque muy triste me separo
DO FA
de tu corazón mañoso
FA
Desde lo mas profundo de mi alma
LA REm
siempre te amare mi vida. (BIS)

FA
Todo se quedo en nada
DO FA
despues de amarnos con pasión.

FA
Todo se quedo en nada
LA REm
despues de amarnos con pasión.


Verso 2:

REm FA
Aunque con pena me separe
DO FA
de tu corazón mañoso
FA
Comprendo que existe recuerdos
LA REm
de nuestro inmenso cariño. (BIS)

FA
Pero por tu amor voluble
DO FA
todo se acabo mi vida
FA
Pero por tu amor voluble
LA REm
todo se quedo en nada. (BIS)

Verso 3:

LA# FA
Ya no hay remedio vida mia

para querernos nuevamente
LA# FA
solo nos queda un camino
LA REm
que ambos busquemos nuestra vida. (BIS)



1 ||---8-10-10-10-8-8-----------------------------------------
2 ||------------------10-8-------10-10-10-8-8-----------------
3 ||-----------------------10-----------------10-7-10---------
4 ||--------------------------10------------------------------
5 ||----------------------------------------------------------
6 ||----------------------------------------------------------


1 ||---8-10-10-10-8-8-----------------------------------------
2 ||------------------10-8-------10-10-10-8-8-----------------
3 ||-----------------------10-----------------10-7-7----------
4 ||--------------------------10------------------------------
5 ||----------------------------------------------------------
6 ||----------------------------------------------------------


1 ||----------------0-1-3-0-----------------------------------
2 ||------0-2-3-2-3---------2-3-----------------------0-2-3---
3 ||----2-----------------------3-2-0-----------0-1-2---------
4 ||----------------------------------3-2-0-2-3---------------
5 ||----------------------------------------------------------
6 ||----------------------------------------------------------

LA REm LA REm



*************************************
* Cualquier Consulta escribir a *
* [email protected] [.)(.] *
* Jimmy Tovar Sanchez *
* Ivan Sanchez Loayza [Joe] *
* Cusco - Peru [FNST] *
*************************************


NUEVO FORO DE MÚSICA

¿Tienes alguna duda, consulta, pregunta, consejo o algo para compartir sobre esta canción?

¡Puedes abrir un hilo en el FORO para que la comunidad te ayude! Hacer una pregunta

ACORDES PARA GUITARRA

PIANO UKELELE
A
Dm
F
C
A#


Las más tocadas de Duo Ayacucho

A
Dm
F
C
A#