El Adios

Duo Ayacucho

Acordes

Subida por javierlz


Más Versiones
Ver. 2 Ver. 3

Cambiar Cifrado
Americano Latino

Cambiar Tonalidad
-1 +1

Partir Pantalla Imprimir FAQ

+A
-A


Ver solo la LETRA
Intro: 


1 ||---5-6-6-6-6-6-5-8--6-6-10-9--10-12-13-15-8--10-5--------- (2 Veces)
2 ||---6-8-8-8-8-8-6-10-8-8-11-10-11-13-15-15-10-10-6---------
3 ||----------------------------------------------------------
4 ||----------------------------------------------------------
5 ||----------------------------------------------------------
6 ||----------------------------------------------------------


1 ||---3-5-5-10-5-5-5-3-0-1-3-5-8--8--8--10-10-5-5-3-3-1------ (2 Veces)
2 ||---5-6-6-10-6-6-6-5-2-3-5-6-10-10-10-10-10-6-6-5-3-3------
3 ||----------------------------------------------------------
4 ||----------------------------------------------------------
5 ||----------------------------------------------------------
6 ||----------------------------------------------------------


1 ||----------------0-1-3-0-----------------------------------
2 ||------0-2-3-2-3---------2-3-----------------------0-2-3---
3 ||----2-----------------------3-2-0-----------0-1-2---------
4 ||----------------------------------3-2-0-2-3---------------
5 ||----------------------------------------------------------
6 ||----------------------------------------------------------

LA REm LA REm


SOLm
La ultima estrella que me queda
LA# DO FA
ya no alumbra mis tinieblas,
SOLm
Siento que tu alo se me aleja
LA# DO FA
y la frialdad de tu alma.


LA
Veo morir la flor
FA LA REm
que tus manos las regaron
FA LA
Y veo morir la flor
FA LA REm
al fin de nuestra primavera.


SOLm
Ya, esta decidido
LA# DO FA
no me detengas, sigue tu camino (BIS)


LA
Solo me quedan los recuerdos
FA
de aquel ayer que fuimos
LA REm
felices en la vida. (BIS)



1 ||---5-6-6-6-6-6-5-8--6-6-10-9--10-12-13-15-8--10-5--------- (2 Veces)
2 ||---6-8-8-8-8-8-6-10-8-8-11-10-11-13-15-15-10-10-6---------
3 ||----------------------------------------------------------
4 ||----------------------------------------------------------
5 ||----------------------------------------------------------
6 ||----------------------------------------------------------


1 ||---3-5-5-10-5-5-5-3-0-1-3-5-8--8--8--10-10-5-5-3-3-1------ (2 Veces)
2 ||---5-6-6-10-6-6-6-5-2-3-5-6-10-10-10-10-10-6-6-5-3-3------
3 ||----------------------------------------------------------
4 ||----------------------------------------------------------
5 ||----------------------------------------------------------
6 ||----------------------------------------------------------


1 ||----------------0-1-3-0-----------------------------------
2 ||------0-2-3-2-3---------2-3-----------------------0-2-3---
3 ||----2-----------------------3-2-0-----------0-1-2---------
4 ||----------------------------------3-2-0-2-3---------------
5 ||----------------------------------------------------------
6 ||----------------------------------------------------------


SOLm
Dame tu ultima mirada,
LA# DO FA
quiero tu ultima sonrisa. (BIS)
LA
Quiero vivir de tus recuerdos
FA LA REm
ya que contigo es imposible. (BIS)


SOLm
Yo, te di mi cariño
LA# DO FA
mi corazón pusiste por los suelos
SOLm
Yo, te entregue mi vida
LA# DO FA
mis sentimientos hechastes al olvido.


LA
Solo me queda olvidarte
FA
decirte adios, no vuelvo
LA REm
amar en esta vida. (BIS)

LA REm
No vuelvo amar en esta vida.


*************************************
* Cualquier Consulta escribir a *
* [email protected] [.)(.] *
* Jimmy Tovar Sanchez *
* Ivan Sanchez Loayza [Joe] *
* Cusco - Peru [FNST] *
*************************************


NUEVO FORO DE MÚSICA

¿Tienes alguna duda, consulta, pregunta, consejo o algo para compartir sobre esta canción?

¡Puedes abrir un hilo en el FORO para que la comunidad te ayude! Hacer una pregunta

ACORDES PARA GUITARRA

PIANO UKELELE
A
Dm
Gm
A#
C
F


Las más tocadas de Duo Ayacucho

A
Dm
Gm
A#
C
F