Mi caballo y mi mujer
Duo Ayacucho
Acordes

Subida por Papos


Más Versiones
Ver. 2 Ver. 3

HERRAMIENTAS

Cambiar Cifrado
Americano Latino

Cambiar Tonalidad
-1 +1

Partir Pantalla Imprimir FAQ

+A
-A

LETRA CON ACORDES

¿Tu Guitarra esta Afinada? PRUEBA NUESTRO NUEVO AFINADOR

hola a todos los visitanmte de la cuerda.net

Esta cancion es una petición, y al ver que no estaba aquí, decidi
subirla...

Duo auyacucho de Perú con la canción
"Mi caballo"

Versión: “Original”
Transcribe: José Manuel
Nivel: Facil

Empezemos...

INTRO:
1.|-------------------------------------------------------------0-|
2.|-----------------------------------------------------------1---|
3.|---------------------------------------------------------2-----|
4.|---0h2---0h2---0h2------------0h2---0h2---0h2----------2-------|
5.|-3-----3-----3-----3-0-3.---3-----3-----3-----3-2.---0---------|
6.|---------------------------------------------------------------|

1.|-------------------------------------------------------|
2.|-------------------------------------------------------|
3.|-------------------------------------------------------|
4.|---0h2---0h2----0h2------------0h2---0h2---0h2---------|
5.|-3-----3------3-----3-0-3.---3-----3-----3-----3-2-0.--|
6.|-------------------------------------------------------|

1.|-------------|
2.|-------------|
3.|-------------|
4.|-------------|solo esto dos veces
5.|-7-5h7-------|
6.|-------4-5v--|


DO
Mi caballo y mi mujera (bis)
LAm DO
Se me han perdido al mismo tiempo
MI LAm
Se me han perdido al mismo tiempo 5.|-7-5h7------7-5h7-----|
6.|-------4-5-------4-5v-|

DO
Yo no me llora por mi mujera(bis)
LAm DO
Mas es mi llora por mi caballo
MI LAm
Mas es mi llora por mi caballo 5.|-7-5h7------7-5h7------|
6.|-------4-5--------4-5v-|



Vamos...

T
1.|--(333)h5p3-------------------------|
2.|------------5-5-5---5p3-3-3-3/1-1v--|
3.|------------------------------------|-->SOLO ESTO DOS VECES
4.|------------------------------------|
5.|------------------------------------|
6.|------------------------------------|




1.|-------------------------------------------------------|
2.|-1h3p1-1-1-1-------0h1.---1h3p1-1-1-1--------0h1-------|
3.|-------------0-0-0---------------------0-0-0-----2v----|
4.|-------------------------------------------------------|
5.|-------------------------------------------------------|
6.|-------------------------------------------------------|

1.|----------------------|
2.|----------------------|
3.|----------------------|
4.|--2/5-2-2-2-2p0-------|-->SOLO ESTO DOS VECES
5.|----------------3-3-3-|
6.|----------------------|

1.|-----------------------------------------------------|
2.|-----------------------------------------------------|
3.|-----------------------------------------------------|
4.|-2p0-------------0h2.---2p0--------------------------|
5.|-----3-3-3--------------------3-3-3---------2h3p2--0-|
6.|-----------3-3-3----------------------3-3-3----------|

1.|-------------|
2.|-------------|
3.|-------------|
4.|-------------|-->solo esto dos veces
5.|-7-5h7-------|
6.|-------4-5v--|


DO
Esa caballo me llevava(bis)
LAm DO
Una mujer, otra mujer
MI LAm
Una mujer, otra mujer 5.|-7-5h7------7-5h7-------|
6.|-------4-5--------4-5v-|


DO
Anda chola mentirosa(bis)
LAm DO
Dice que me vas matar
MI LAm
Dice que me vas matar 5.|-7-5h7------7-5h7------|
6.|-------4-5--------4-5v-|

Vamos...... para canto andino con cariño...

1.|-------------------------------------------------------------0-|
2.|-----------------------------------------------------------1---|
3.|---------------------------------------------------------2-----|
4.|---0h2---0h2---0h2------------0h2---0h2---0h2----------2-------|
5.|-3-----3-----3-----3-0-3.---3-----3-----3-----3-2.---0---------|
6.|---------------------------------------------------------------|

1.|-------------------------------------------------------|
2.|-------------------------------------------------------|
3.|-------------------------------------------------------|
4.|---0h2---0h2----0h2------------0h2---0h2---0h2---------|
5.|-3-----3------3-----3-0-3.---3-----3-----3-----3-2-0.--|
6.|-------------------------------------------------------|

1.|-------------|
2.|-------------|
3.|-------------|
4.|-------------|-->solo esto dos veces
5.|-7-5h7-------|
6.|-------4-5v--|



DO
Si tu me matas con tu cuchillo(bis)
LA DO
Un solo huico me vas a hacer
MI LAm
Un solo huico me vas a hacer 5.|-7-5h7------7-5h7------|
6.|-------4-5--------4-5v-|


DO
Si tu me matas con tu tijera(bis)
LAm DO
Dos huicos me vas a hacer
MI LAm
Mas peor te vas joder 5.|-7-5h7------7-5h7------|
6.|-------4-5--------4-5v-|




FUGA:

DO
Alas orillas de un hombre
SOL LAm
Estaba sentado un rio
DO
Afilando su caballo
LAm
Para matar a su cuchillo
DO MI LAm
Para matar a su cuchillo 5.|-7-5h7------7-5h7------|
6.|-------4-5--------4-5v-|


DO
Luna patata challampis
SOL LAm
Mayuyaquia rayashascasca
DO
Caballota afilas cuspay
LAm
Cuchillo nacay cunampa
DO MI LAm
Cuchillo nacay cunampa



FA SOL LAm
1.|-------------| 1.|--------------| 1.|---------|
2.|---------1---| 2.|------------0-| 2.|---------|
3.|-------2-----| 3.|----------0---| 3.|--2------|
4.|-----3-------| 4.|-------0------| 4.|----2----|
5.|---3---------| 5.|----2---------| 5.|------0--|
6.|-1-----------| 6.|--3-----------| 6.|---------|

------------------------------fin----------------------------------
____________________________________________________________________

---------mi msn es: [email protected]

Hay alguna cancion que sea latinoamericano o folcklor y PERUANO
que no este aqui envienme un mail y lo subo en el menor
tiempo posible..

codiciones:
en el mail debera contener lo siquiente:

-deberan mandarme la letra de la cancion
-deberan mandarme el link del video de la cancion en youtube
-que sea peruano, bueno baladas tambien pero conocidas y buenas..

y yo lo subo ala cuerda.net ok??
bueno ese fue mi aporte , y esta muy bien asi que el que dice
que esta mal que se jorobe... jeje mentira.. agregenme y les ayudo

saludos...

////////////////// ¿Te Animas? Sube una canción a este sitio. //////////////////

ACORDES PARA GUITARRA

PIANO UKELELE
C
Am
E
A
G
F


COMENTARIOS

Aún no hay comentarios,

¡escribe el primero!

Escribe una pregunta, duda o comentario sobre esta canción, te responderemos a la brevedad.

Las canciones más tocadas de Duo Ayacucho

Toca una Canción al Azar de Duo Ayacucho
C
Am
E
A
G
F

18.59


Nuestro servidor se demoró 0.02 segundos en generar esta página. Eso fue realmente muy rápido!