Pasajero en tu camino
Duo Ayacucho
Acordes

Subida por juanbay


Más Versiones
Ver. 2 Ver. 3 Ver. 4 Ver. 5

HERRAMIENTAS

Cambiar Cifrado
Americano Latino

Cambiar Tonalidad
-1 +1

Partir Pantalla Imprimir FAQ

+A
-A

LETRA CON ACORDES

¿Tu Guitarra esta Afinada? PRUEBA NUESTRO NUEVO AFINADOR

holas manes amantes de la musica aqui les dejo mi
primera transcripcion espero q les guste ..
intro solo 1 bajo

D ----0/2-2-2-2-0----0-2-0-2-2-2-2-0-
1 A --00------------2-----------------2
E -0---------------------------------

D ----0/2-2/5-2-2-0----0-2-0-2-2-2-2-0-
2 A --00-------------2------------------2
E -0---------------------------------

D -------2-2-------0-2-0-2-2-2-2-0-2-------2-2------
3 A --00--2----00-2---------------------00--2---0-0--0
E -0--------------------------------0--------------

D 0-2-0-2-2-2-2-0-
4 A ----------------2
E -----------------

D -------2-2-------0-2-0-2-2-2-2-0--------2-2------
5 A --00--2----00-2-----------------2---00--2---0-0--0
E -0--------------------------------0--------------


E --------8^10-12-12--
B --8-9-10-----------8-9-10^10^10-> este ultimo es repiqueo
6 G -9----------------9------------


Am C
Soy uno mas en tu vida
G C Am
un pasajero en tu camino (bis)
C G C
Puedes dejarme donde quieras
F G C
si ya no tienes sentimientos
G C
No importa aquí o mas allá
E Am
que para mi todo es lo mismo(bis)

E -10-12-10-12--12-12-10-8---------8-10-10-----8----
B ------------------------8-8-10-10-------10-10-----
7 G --------------------------------------------------

E -10-12-10-12--12-12-10-8---------8-10-10---------
B ------------------------8-8-10-10-------10-10-10-10
8 G --------------------------------------------------
7 y 8 va con la letra en la parte Puedes dejarme....
primera guitarra.
solo 2

E-10-12-10-12--12-12-10-8---------8-10-10-----8----
B------------------------8-8-10-10-------10-10-----
7 G--------------------------------------------------

E-10-12-10-12--12-12-10-8---------8-10-10---------
B------------------------8-8-10-10-------10-10-10-10
8 G-------------------------------------------------- (bis)

E --------8^10-12-12--
B --8-9-10-----------8-9-10^10^10-> este ultimo es repiqueo
6 G -9----------------9------------

Am C
En el camino del romance
G C
soy un viajero sin destino (bis)
C G C
Unas palabras amorosas
F G C
y unas caricias alli me quedo
G C
auque despues mal me paguen
E Am
esa es mi suerte conocida (bis)


D -0-2-0-2-2-2-2-0-
2 A --------------------2
E ------------------------------
D -------2-2-------0-2-0-2-2-2-2-0-2-------2-2------
3 A --00--2----00-2---------------------00--2---0-0--0
E -0--------------------------------0--------------

9 E -------
B -3/5-3/5-5-5-3-3-1-----1-3-3---1-
G ------------------0/2-2-----2-2--

9 E -------
B -3/5-3/5-5-5-3-3-1-----1-3-3-----
G ------------------0/2-2-----2-2-2-

E --------8^10-12-12--
B --8-9-10-----------8-9-10^10^10-> este ultimo es repiqueo
6 G -9----------------9------------


FUGA
C G C
Quiero viajar sin retorno
F G C
para olvidar tus acciones
F C
aun de muerto caminando
E Am
recordare mis pasiones.




E -10-12-10-12--12-12-10-8---------8-10-10-----8----
B ------------------------8-8-10-10-------10-10-----
3 G --------------------------------------------------

E -10-12-10-12--12-12-10-8---------8-10-10---------
B ------------------------8-8-10-10-------10-10-10-10
4 G --------------------------------------------------


E --------
B --8-10-8-10
6 G -9---------

E -10-12-10-12--12-12-10-8---------8-10-10-----8----
B ------------------------8-8-10-10-------10-10-----
3 G --------------------------------------------------

E -10-12-10-12--12-12-10-8---------8-10-10---------
B ------------------------8-8-10-10-------10-10-10-10
4 G --------------------------------------------------

BUENO LOS DEJO Y PRACTIQUEN LO NUESTRO CUALQUIER CONSULTA A MI
CORREO [email protected] cuidense..

////////////////// ¿Te Animas? Sube una canción a este sitio. //////////////////

ACORDES PARA GUITARRA

PIANO UKELELE
D
A
E
G
Am
C
F
B


COMENTARIOS

Aún no hay comentarios,

¡escribe el primero!

Escribe una pregunta, duda o comentario sobre esta canción, te responderemos a la brevedad.

Las canciones más tocadas de Duo Ayacucho

Toca una Canción al Azar de Duo Ayacucho
D
A
E
G
Am
C
F
B

13.34


Nuestro servidor se demoró 0.05 segundos en generar esta página. Eso fue realmente muy rápido!