De Rodillas (El Bicho) Acordes



Más Versiones de esta Canción | Ver. 2 |

Cambiar Cifrado: |SOL > G| - |G > SOL|

BAJAR UN TONO BAJAR UN SEMI-TONO SUBIR UN SEMI-TONO SUBIR UN TONO PARTIR PANTALLA EN VERTICAL PARTIR PANTALLA EN VERTICAL ¡Ayuda!
-A
+A
SIm7
6|-------------------------------------------------------------------
5|--2----------------------------2-----------------------------------
4|----4-------------4-4-5-5-4-4----4---------4-----------4-----------
3|------4-4-4-4-4-3------------------2-2-----4-2-2-2-----4-2-2-2-----
2|-----------------------------------3-3-2-2-----3-3-2-2-----3-3-2-2-
1|-------------------------------------------------------------------
FA#m7 SIm7 FA#m7 MI
6|------------------------2-------------------2----------0--------0---
5|--------------2-------------------2----------------------2---------
4|--4-------------4-------------------4---------------------2---2----
3|--4-2-2-2-2-----2-------------------2-----------------------0------
2|------3-3-2-3---2---5-3-2--2-3-2----2---5-3-2--2-2-3---------------
1|------------------2-------------------2--------------------------0-

Sim7=X24232; Fa#m7=242222 Mi=022000;

SIm7 FA#m7
Barrio donde nunca estuvo antes
MI Fa#m7 (5 5 4 4 2 0)en cuerda 4
calle del cielo con los colores mas grande
SIm7 FA#m7
barrio donde nunca estuvo antes
MI FA#m7 Sim7m FA#m7
calle del cielo ahora miras por donde sale el sol
MI FA#m7 SIm7
eaa que me arropo sin cuidao si te apartas tu de mi
MI FA#m7 (2 3 5 2) en cuerda 6-SIm7
calorr y se queda sin tus trapos si no te viene a dormi

(Instrumental)
Sim7m Fa#m7-Sim7- Fa#m7

MI FA#m7 MI
lerelele lerelelele lerelele

6|---------------------------5-3-0---
5|-------------------5-5-4-2---------
4|-4-4-2-2-0-4-4-2-2-----------------

(esta parte se hace con rasgueos)
MI
y ahora me dices
FA#m7
que no me conoces
MI FA#m7
tu te has colgao de las ramas
MI FA#m7
y ahora me cuentas
SIm7
primo yo sigo enganchao
MI FA#m7
y ahora me dice que desvarias
MI FA#m7 SIm7 MI-FA#m7-SIm7
la de la puerta de al lao la de al lao
MI FA#m7
y dise que como camino
SIm7
que no llego a ningun lao
MI FA#m7
ouou primo que dise que como camino.

(esto como con ritmo de tanguillo y ligerito)
SIm7 FA#m7 MI FA#m7 SIm7 FA#m7 MI
De rodillas pidiendo perdon manos contra la pared
FA#m7 SIm7 FA#m7 MI …… sigue igual
y un dia preguntaras por mi y no me volveras a ver y no me volveras a ver
de rodillas pidiendo perdon manos contra la pared
y un dia preguntaras por mi y no me volveras a ver
y no me volve y no me volve y no me volveras aver
…Mi
de rodillas pidiendo perdon.

MI FA#m7 SIm7
Me hago los porros delante de ti y no me sofoco
FA#m7
me los fumos por respeto aprendi a vivir
MI
lo importante fue lo de menos me
Fa#m7 ….(Sigue iual hasta el final)
voy a morir yo aqui a morir
lo i`portante fue lo de menos voy a morirme aqui
lo importante fue lo de menos lo importante fue...
contarnos los dias contaaarnos los dias.

Bueno otro tema mas q cuelgo del bicho…en este tema he puesto
mas punteillos o adornos pa ir tocando (no se si qda claro)…
es q ponerlo to no veas…el guitarra del bicho va jugando a
levantar el dedo medio en el acorde de Sim7 y poner el dedo
pequeño en el quinto traste de la segunda cuerda en esa mismo
acorde…no se si me explico…vamos lo q he puesto en la tablatura
del principio es eso en verdad…dudas a mi correo…q la disfruten!!!
El siguiente q cuelgue Locura o tanguillo nuevo…



¡Siguiente!

Toca una Canción al Azar de El Bicho
Bm7
F#m7
E




Aún no hay comentarios, ¡escribe el primero!

Escribe un comentario o pregunta sobre esta canción:




Más canciones de El Bicho

De Rodillas
Locura
Contigo
Parque Triana
El Cosmonauta
De los malos
Mamá Dolores
Bandolero
De Vivir
Letras
Navegando
Ropa Tendía
El síndrome de Ulises
Los Rokipankis
Mira
Tanguillo Nuevo
Pa tí
Zapatillas
El tambalea

Siguiente


ABRIR ACORDES

Nuestro servidor se demoró 0.16 segundos en generar esta página. Eso fue realmente muy rápido!