Pa tí
El Bicho
Acordes

Subida por abdias24


Más Versiones
Ver. 2 Ver. 3
HERRAMIENTAS

Cambiar Cifrado
Americano Latino

Cambiar Tonalidad
-1 +1

Partir Pantalla Imprimir FAQ

+A
-A
LETRA CON ACORDES

¿Tu Guitarra esta Afinada? PRUEBA NUESTRO NUEVO AFINADOR

  Pá ti (Zaira)
           SOL                 SIm7    SI* MI*              LAm7 DOm7
6|--------3-3-------------------x-------7--0-----------------5----X---
5|----------2-----------------2-2-------X--7-----------------0----3---
4|----------0-------------------4-------7--6-----------------5----5---
3|--4-4-5---0-------------------2-------7--7---------4-5-5-7-5--7-3---
2|--------3-3---3/5---3-3/5/3---3-3-3-5-6--6---5-65---------5----4-6-
1|----------3-2-3/5-2-----------2-------0--0-5---------------0----X---

DSOL      Sol(cejilla) MI LAm7   RE
--X---------3----------0---X------X-----------------------------------
--3---------5----------2---0------X-----------------------------------
--5---------5----------2---2------0-----------------------------------
--3---------4----------1---0------2-----------------------------------
--4-4-4-6-4-3----------0---1------3-----------------------------------
--3---------3----------0---0------2-+3--------------------------------

Sol?=324030            Si?=X24030   Lam7(cejilla)=575555
         SOL?                     SI?
Me desperte y antes que saliera el diiiiiia
                     LAm7          RE           SOL
Y antes que la luz vinieeeeera los sendero de alegriiiia

Si pienso en tiiii que yo puedo seguir pensaaaando
Si te pierde y yo me pierdoooo entre tanto llanto

Mira si tengo pa tiiii que mira si tengo pa tanto
Que hasta el viento me suspira
y es que el aire se a calmaooo

LAm7
Si no me conooooces

 ay que tiene las cosas
                RE              LAm7(cejilla 5)
que tienen sentio q nadie lo toque
                 SIm7
Dime q sentio tiene
                     LAm7
Que me entienda sin oirme
                         SOL
Y hasta el aire de la nochee

*Ya el resto de la cancion sigue con los mismos acordes*

Bueno esta es la 1º canción que tablaturo (se dice asi no?)
Y la verdad q es un coñazo pero merece la pena….gracias a q
 la gente tablatura los temas q saca he aprendido a tocar
 casi tò lo q sé hoy…
Animo a sacar mas temas del Bicho...
Ese Cadi Oé!!!

////////////////// ¿Te Animas? Sube una canción a este sitio. //////////////////

ACORDES PARA GUITARRA

PIANO UKELELE
G
Bm7
B
E
Am7
Cm7
E
D
G
B


COMENTARIOS

Aún no hay comentarios,

¡escribe el primero!

Escribe una pregunta, duda o comentario sobre esta canción, te responderemos a la brevedad.

Las canciones más tocadas de El Bicho

Toca una Canción al Azar de El Bicho
G
Bm7
B
E
Am7
Cm7
E
D
G
B

23.01


Nuestro servidor se demoró 2.33 segundos en generar esta página. Claramente hay conexiones mas rápidas...