Locura (El Bicho) Acordes



Más Versiones de esta Canción | Ver. 2 |

Cambiar Cifrado: |SOL > G| - |G > SOL|

BAJAR UN TONO BAJAR UN SEMI-TONO SUBIR UN SEMI-TONO SUBIR UN TONO PARTIR PANTALLA EN VERTICAL PARTIR PANTALLA EN VERTICAL ¡Ayuda!
-A
+A
elbicho: "elbicho" - 2003
LOCURA:

Punteillo por abajo
1|-----------------------------------------------------------------
2|-3-2-3-2-3-5-5--------3-2-3-2-3-5-5-6-5-3-2-3--3-2-3-2-3-5-5-----
3|---------------3-2-3----------------------------------------3-2-3
4|-----------------------------------------------------------------
5|-------------------------------------
6|-------------------------------------

1|-----------------------------------------------------------------
2|-------------3-2----3-2------------------------------------3-2---
3|-2-2------2-3---3-2--3-2-3-----2----3-2-----2-----2-----2-3---3-2
4|--5--2-3-5-----------------3-2---2-3---5-3-2--2-3--2-3-5---------
5|--------------------------------------
6|--------------------------------------

Punteillo por arriba

1|---------------------------------------
2|---------------------------------------
3|---------------------------------------
4|-0-0-0-2-2-------0-0-0-2-2-3-2-0-0--0-0-0-2-2-----------
5|--4-4-----1-0-1---4-4-----------4----4-4-----1-0-1-0-0--
6|----------------------------------------------------2---

1|---------------------------------------
2|---------------------------------------
3|---------------------------------------
4|---------0-------0---------------------------------0---------
5|------0-1-4-1-0---1-4-0-1---0---1-0-----0-------0-1-4-1-0----
6|-0-1-3-------------------1-0-0-1---3-1-0---0-1-3-------------

LaMaj7¿?=X02320 este acorde no estoy seguro de como se llama...
La#=X13331 aunque yo lo toco en septima X13030
Do9=X32330

LAmaj7 LA#
LOCURA, LA NOCHE LOCA ESPERA
DO9
LA LUZ DE LA MAÑANA
LA# LAmaj7
Y ENLOQUECER CON ELLA
LAmaj7 LA#
QUE TRISTE ESTAN LOS QUE SE FUERON
LAmaj7 LA#
QUE TRISTE ESTAN LOS QUE PERDIERON
LAmaj7
SERE LO QUE YO QUIERA
DO9 LA#
MI COMPAÑERO LO QUE ME IMPORTA ES LA LOCURA
LAmaj7
Y EL VIENTO SE LLEVA EL VIENTO Y EL VIENTO LLEVA…
LAmaj7
Y SI MI CORAZON TE DIJERA A TI
LO QUE TE QUIERO YO(BIS),
DO9
QUE TU ME QUERRIAS UN POCO MAS.
LA# LAmaj7
QUE TU ME QUERRIAS UN POCO MAS.
LAmaj7
POR QUE TE TENGO QUE PEDIR LLORANDO

PORQUE YO PIENSO QUE TU ESTAS PENSANDO

PENSANDO QUE A VECES ESTOY LOCO
DO9 LA#
Y A VECES NO SIENTO LA INMENSA LOCURA
DO9 LA# LAmaj7
Y EN MIS SUEÑOS TE PIERDO…
LAmaj7
Y SI MI CORAZON TE DIJERA A TI………
LO QUE TE QUIERO YO.

LA LOCA, LA LOCURA.
Y SI MI CORAZON HABLARA EL TUYO NO TENDRIA DUDA(BIS)

Bueno otro temita más de estos...versión light...
A la espera de que salga ElBicho VII...el próximo que cuelgue
será La toba,pequeña serenata diurna o La Suite? xD

Que lo disfruten!! cualquier duda o corrección,
xfavor a mi correo...



¡Siguiente!

Toca una Canción al Azar de El Bicho
Amaj7
A#
C9
A
B
E




Aún no hay comentarios, ¡escribe el primero!

Escribe un comentario o pregunta sobre esta canción:




Más canciones de El Bicho

Zapatillas
Pa tí
Letras
De Rodillas
Mira
Tanguillo Nuevo
El síndrome de Ulises
Contigo
Navegando
Los Rokipankis
El tambalea
De los malos
Bandolero
Ropa Tendía
Mamá Dolores
Locura
El Cosmonauta
Parque Triana
De Vivir

Siguiente


ABRIR ACORDES

Nuestro servidor se demoró 0.23 segundos en generar esta página. Eso fue realmente muy rápido!