Descerebrados

El bordo

Acordes

Hermanos (2014)
Subida por Pabon


Más Versiones
Ver. 2

Cambiar Cifrado
Americano Latino

Cambiar Tonalidad
-1 +1

Partir Pantalla Imprimir FAQ

+A
-A


Ver solo la LETRA
PUEDEN TOCARLO CON LOS ACORDES QUE LES DEJE QUE SON LOS ORIGINALES, O BIEN
REEMPLAZARLOS POR ACORDES MAYORES:

B5 = B
B5/G# = G#m
B5/G = G
B5/F# = F#
E5 = E
F#5 = F#m
G5 = G


EXPLICACIÓN ACORDES COMBINADOS:

B5/F#
e|------------------|
B|------------------|
G|-----4------------|
D|-----4------------|
A|-----x------------|
E|-----2------------|

B5/G#
e|------------------|
B|------------------|
G|-----4------------|
D|-----4------------|
A|-----2------------|
E|-----4------------|

B5/G
e|------------------|
B|------------------|
G|-----4------------|
D|-----4------------|
A|-----2------------|
E|-----3------------|

ARRANCA CON F#5-F#5 x4

Luego pueden utilizar los acordes o tocarlo a modo de riff
como se los dejo acá:

e|-----------------------------------------|
B|-----------------------------------------|
G|-4--4-4--4--4-4-4--4--4--4-4--4--4--4----|
D|-4--4-4--4--4-4-4--4--4--4-4--4--4--4----| X2
A|-2--2-2--0--x-x-x--x--2--2-2--0--0--0----|
E|------------2-2-2--2--4--4-4--4--4--4----|

B5 B5/F# B5/G#
El va corriendo en sus ruedas sin ver atrás
B5 B5/F# B5/G#
Ciudad vacía semáforos para forzar
B5 B5/F# B5/G#
Rojo no importa lo lleva a la velocidad
B5/G
Y va y va y va y va

B5 B5/F# B5/G#
Ella se apura mucho tiene para decir
B5 B5/F# B5/G#
Tal vez se esconde tal vez sea mejor así
B5 B5/F# B5/G#
Se viste etérea de blanco casi de marfil
B5/G
Se va se va se va se va
E5 F#5 G5
Y sin embargo nunca llegara el porque
E5 F#5 G5
Descerebrados en busca de algún placer

PUENTE:
e|-----------------------------------------|
B|-----------------------------------------|
G|-----------------------------------------|
D|--4-4-----4------4-4----4----7--8--------|
A|--4-4-----4------4-4----4----7--8--------|
E|--2-2--0--2---0--2-2-0--2----5--6--------|
e|-----------------------------------------|
B|-----------------------------------------|
G|-----------------------------------------|
D|--4-4-----4------4-4----4----------------|
A|--4-4-----4------4-4----4----------------|
E|--2-2--0--2---0--2-2-0--2----------------|

B5 B5/F#
Olvido descerebrado hecho a correr
B5/G#
Y grito, ya no hay mas sentido
B5/G
Si no estas conmigo
B5 B5/F#
Descerebrado hecho a correr
B5/G#
Y grito, ya no hay mas sentido
B5/G
Si no estas conmigo

e|-----------------------------------------|
B|-----------------------------------------|
G|-4--4-4--4--4-4-4--4--4--4-4--4--4--4----|
D|-4--4-4--4--4-4-4--4--4--4-4--4--4--4----| X2
A|-2--2-2--0--x-x-x--x--2--2-2--0--0--0----|
E|------------2-2-2--2--4--4-4--4--4--4----|

B5 B5/F# B5/G#
El quiere y busca saciar a su insatisfacción
B5 B5/F# B5/G#
Nada le importa hasta, poderla contentar
B5 B5/F# B5/G#
Las calles piden que lo acelere hasta poder
B5/G
Llegar llegar llegar llegar
B5 B5/F# B5/G#
Nunca esta afuera adentro siempre todo esta
B5 B5/F# B5/G#
Lo que estas viendo tu mente tuvo que crear
B5 B5/F# B5/G#
Será tu dueño en esta nueva realidad
B5/G
Que va que va que va que va

E5 F#5 G5
Y sin embargo nunca llegara el porque
E5 F#5 G5 B5
Descerebrados en busca de algún placer

B5 B5/F#
Olvido descerebrado hecho a correr
B5/G#
Y grito, ya no hay mas sentido
B5/G
Si no estas conmigo
B5 B5/F#
Descerebrado hecho a correr
B5/G#
Y grito, ya no hay mas sentido
B5/G
Si no estas conmigo

ARPEGIOS SOBRE: E-F#m-G

Y va y va y ya y va
Y va y va y va y va
Y va y va y ya y va
Y va y va y va y va
Y va y va y ya y va
Y va y va y va y va
Y va y va y ya y va

E5 F#5 G5
Y sin embargo nunca llegara el porque
E5 F#5 G5
Descerebrados en busca de algún placer
E5 F#5 G5
Si habrá segundo, abra también una luz
E5 F#5 G5
Siempre hay un norte por cada autopista al sur
E5 F#5 G5
Y sin embargo nunca llegara el porque
E5 F#5 G5
Descerebrados en busca de algún placer
E5 F#5 G5
Si habrá segundo, habrá también una luz
E5 F#5 G5
Siempre hay un norte por cada autopista al sur
E5 F#5 G5
Y va y va y va y va
E5 F#5 G5
Y va y va y va y va.

Final: F#5-F#5 F#5-F#5 F#5

ESO ES TODO AMIGOS!
ESTA TAL CUAL LO TOCAN ELLOS. CUALQUIER CONSULTA A:

[email protected]

SALUDOS, ANGEL87!


NUEVO FORO DE MÚSICA

¿Tienes alguna duda, consulta, pregunta, consejo o algo para compartir sobre esta canción?

¡Puedes abrir un hilo en el FORO para que la comunidad te ayude! Hacer una pregunta

ACORDES PARA GUITARRA

PIANO UKELELE
B5
B
B5/G#
G#m
B5/G
G
B5/F#
F#
E5
E
F#5
F#m
G5


Las más tocadas de El bordo

B5
B
B5/G#
G#m
B5/G
G
B5/F#
F#
E5
E
F#5
F#m
G5