Siento

El bordo

Acordes

Subida por Gnolaumcervantes


Más Versiones
Ver. 2 Ver. 3 Ver. 4 Ver. 5 Ver. 6

Cambiar Cifrado
Americano Latino

Cambiar Tonalidad
-1 +1

Partir Pantalla Imprimir FAQ

+A
-A


Ver solo la LETRA
            E                                        A

E|-----------------------------------------------------------|
B|-----------------------------------------------------------|
G|-9-9-9-9-9-9-8-8-8-8-8-8-8-x2-8-8-8-8-8-8-6-6-6-6-6-6-6-x2-|
D|-9-9-9-9-9-9-9-9-9-9-9-9-9----7-7-7-7-7-7-7-7-7-7-7-7-7----|
A|-----------------------------------------------------------|
E|-----------------------------------------------------------|

E E*
Siento que siempre es lo mismo
E E*
Siento que no hay tiempo para mi
A A*
Siento que lo arruino todo
A A*
Siento que no puedo ser feliz
E E*
Siento que la libertad
E E*
Es por lo unico que juego
A A*
Siento que se me hace tarde
A A*
Siento que me falta el aire.

F#m A
Voy a desnudar mi luz, para liberarme
E E* E E*
Si!...El cielo va a brillar alucinado estas
A A* A A*
Sin alas, sin miedo, como si fuera el final.

B C#m
Si te vuelvo a encontrar
G
Te diria tantas cosas
E
Que no alcanza solo una canción

Intro: E-A x2

E E*
Y voy a destapar la sensacion
E E* A*
Borracha de sentir tanto dolor
A* A A*
Un letargo de un sueño recien soñado.

F#m A
Voy a desnudar mi luz, para liberarme
E E* E E*
Si!...El cielo va a brillar alucinado estas
A A* A A*
Sin alas, sin miedo, como si fuera el final.

B C#m
Si te vuelvo a encontrar
G
Te diria tantas cosas
B
Que no alcanza solo una canción
A
Sopla el viento una razon
G
Y llegaras a la respuesta

Solo: Base Intro x2

E|-12-x13-aprox---14~x5------------------|
B|-12-------------14~--10-x6-------------|
G|---------------------13b---------------|
D|---------------------------12h14-x5----|
A|---------------------------------------|
E|---------------------------------------|

A-B A
Si te vuelvo a encontrar
G
Te diria tantas cosas
B
Que no alcanza solo una canción
A
Sopla el viento una razon
G
Y llegaras a la respuesta

Solo armonica base: B-A-B D-C#-D A-G#-A
B-A-B D A
B-A-B D-C#-D A-G#-A
B-A-B D-D#-E

E E* A A*
G|-9-| G|-9-| D|-7-| D|-7-|
D|-9-| D|-9-| A|-7-| A|-6-|
A|-7-| A|-6-| E|-5-| E|-5-|

Cualquier duda mandame un email: [email protected]


NUEVO FORO DE MÚSICA

¿Tienes alguna duda, consulta, pregunta, consejo o algo para compartir sobre esta canción?

¡Puedes abrir un hilo en el FORO para que la comunidad te ayude! Hacer una pregunta

ACORDES PARA GUITARRA

PIANO UKELELE
E
A
E
A
F#m
B
C#m
G
D
C#
G#
D#


Las más tocadas de El bordo

E
A
E
A
F#m
B
C#m
G
D
C#
G#
D#