Noche Extraña (Acordes)

El bordo

Full Álbum: Yacanto (2007)
Subida por Edgarulises17

Compartir


Cambiar Cifrado
Americano Latino

Cambiar Tonalidad
-1 +1
Imprimir FAQ
+A
-A

Texto

Desplazamiento

Transportador

Color de Fondo

Archivos

-A
+A
Cualquier pregunta manden un email a [email protected]


Intro:                                                         -|
                                                                |
3)----2--------------------------------------------------------| |
4)----0-2-2-2-2---2--2-2-2-2-2-2-2---2-2-2-2-2--2-2-2-2-2-2-2--| |
5)-2-0--3-0-3-0---0--0-0-3-0-5-3-0---3-0-3-0-0--0-0-3-0-5-3-0--| |
6)-0-3----------3------------------3--------3----------------2-| |
                                                                 |x2
                                                                 |
4)2-2-2-2-2--2-2-2--2--2--2-2----2-2-2-2-----2-2-2-2--2-2------| |
5)3-0-3-0-0--0-0-3--0--5--3-0----3-0-3-0-----3-0-3-0--5-0------| |
6)-------3--------------------1----------1-3-------------------| |
                                                              -|
ESTE TAB LLEVA UN RITMO Q NO LO PUEDO ESCRIBIR, ASIQ TRATEN
DE SACARLO DE OIDO Y FIJENSE BIEN COMO LO TOCA!


1)   A5
         En la pantalla alguna estacion
   A5 G5
         No se si vendo o estoy pasado
  G5 F#5
         Voy recorriendo tal como soy
       F#5       F        G                    5)-2---7------
          De noche solo, sueño y no es extraño 6)-0-3-5-----

1)
La mami toma para ir a dormir
El hijo ritalin asi es mas dócil
Papa no duerme ahora dice que
Aprendio a beber pero sin tomar

2)
C5
       No me dejes solo
A#5                       Am5
       En esta gran multitud
                            G5
       Sin tu mano soy tan frágil

      Nunca supe ser feliz

3)
C
    Solo ver tus ojos
A#                         FA
    Solo estar junto al placer
                      G
     Regalame una sonrisa
                             A
     en este nido de alquitran

intermedio = intro

1)
sirenas visten desesperación
el bar colmado voy buscando soma
veo al morbosa acariciandose
sabemos cuanto le gustan las viudas

1)
tan solo se que mientras mas aprendo
me doy cuenta de que menos se
tan basto es este onirico infinito
solo el amor le da el sentido al se


2)
No me dejes solo
En esta gran multitud
Sin tu mano soy tan frágil
Nunca supe ser feliz

3)
Solo ver tus ojos
Solo estar junto al placer
Regalame una sonrisa
en este nido de alquitran

C - A# - FA

4)
                    G#
Sin tu mano soy tan frágil
                     D#5
Nunca supe ser feliz

A#5                     DO#5
   en tu cuepo mi calor
                    G#5
   en tu alma libertad
               D#
   solo el amor

1)|-----------------------------|
2)|------4-6-4-6v--4------------|
3)|------4-6-4-6v--4------------|
4)|--4s6-------------6----------|
5)|-----------------------------|
6)|--------------------4-5-6----|


Video Clip de Noche Extraña


ACORDES PARA GUITARRA

PIANO UKELELE
A5
G5
F#5
F
G
C5
A#5
Am
C
A#
F
A
G#
D#5
C#5
G#5
D#


TOP 20: Las más tocadas de El bordo


Toca una Canción al Azar de El bordo

Acordes

Cerrar
A5
G5
F#5
F
G
C5
A#5
Am
C
A#
F
A
G#
D#5
C#5
G#5
D#

03.06

x

93