El Regreso (Acordes)

El bordo

Full Álbum: Yacanto (2007)
Subida por Osnaider

Compartir


Cambiar Cifrado
Americano Latino

Cambiar Tonalidad
-1 +1
Imprimir FAQ
+A
-A

Texto

Desplazamiento

Transportador

Color de Fondo

Archivos

-A
+A
   INTRO:
e|------------------------------------------------------------------|
B|------------------------------------------------------------------|
G|-111-------------111---2-2-2-2-0-------------0-2-0----------------|
D|-222--0-2-3-2-0--222-------------3-2-3-----3-------3-2--0-2-3-2-0-|
A|-222-------------222-------------------3-0------------------------|
E|------------------------------------------------------------------|

e|---------------------------------------------------------------------
B|---------------------------------------------------s6----------------
G|--------1--1-2-4-2-4-5-4-2-1h2p1-111-5-5-5-5-4-2-1----5-2---0-2-0----
D|2-1-2-3--3-----------------------222----------------------3------3-2-
A|---------------------------------222---------------------------------
E|---------------------------------------------------------------------

Cuando dice "y solo veras energia flotando..." hace:
e|-5--5--5-5---5--5--5-5---5--5--5-5-----|
B|--5--5--5-5---5--5--5-5---5--5--5-5----|
G|---5--5----5---5--5----5---5--5----5---|
D|---------------------------------------|
A|---------------------------------------|
E|---------------------------------------|
Tambien lo hace cuando dice "de la soledad, llorara la pureza..."


DESPUES DEL PRIMER ESTRIBILLO:
e|-----------------------------------------------------------|
B|-----------------------------------------------------------|
G|-111-------------111---2-2-2-2-0-------------0-2-0---------|
D|-222--0-2-3-2-0--222-------------3-2-3-----3-------3-2-----|
A|-222-------------222-------------------3-0-----------------|
E|-----------------------------------------------------------|

           “SOLO”
 “y se mueren sin ver la verdad, todavía hay mucho que hablaarr…
e|---------------------|
B|---------------------|
G|---------------------|
D|---------------------|
A|--------2-3-2-3-5----|
E|--5-4-5--------------|

e|------------------------------------------------s15---------|
B|------------------------------15b-15-13-12-10-8----15-12----|
G|-111--------------|111111|----------------------------------|
D|-222--0-2-3-2-0-2-|222222|----------------------------------|
A|-222--------------|222222|----------------------------------|
E|------------------|aca hace algo con hua hua y se me hizo---|
                     imposible sacar.|

Desde: “Me queda tatuada en la piel tu canción” una guitarra hace
los acordes y la otra hace esto:
e|---------------------------|
B|6p5---6p5---6p5-6p5--------|
G|----5-----5--------5-------|
D|---------------------------|
A|---------------------------|
E|---------------------------|


Cuando termina el estrbillo que dice "yo volvere" x2 hace esto:
e|-------------------------------------|
B|---6-5---6---5---5-6-5---6---5---5---|
G|-------5-------5-------5-------5-----|X2
D|-------------------------------------|
A|-------------------------------------|
E|-------------------------------------|

FINAL:
e|--------------------------------------------------------|
B|--------------------------------------------------------|
G|--------------------------------------------------------|
D|--------------------------------------s3-2--s3-2---2----|
A|-1-1-1s3-3-3-3s5-5-5s7-7-7s8-8-8s10-------3-----3--3----|
E|--------------------------------------------------------|

Los acordes ya estan posteados, asi que espero que les sirva
cualquier cosa mandenme un mail a [email protected]
Aguante EL BORDO.


Video Clip de El Regreso


ACORDES PARA GUITARRA

PIANO UKELELE


TOP 20: Las más tocadas de El bordo


Toca una Canción al Azar de El bordo

Acordes

Cerrar

04.02

x

71