Que ella vuelva a sonreir
El bordo
Acordes

Subida por Jorgito
Álbum: El refugio ( 2017)


Más Versiones
Ver. 2

Cambiar Cifrado
Americano Latino

Cambiar Tonalidad
-1 +1

Partir Pantalla Imprimir FAQ

+A
-A


Ver solo la LETRA
#NiUnaMenos


Riff intro y estrofas

E E/C# E/G# E/G#

e----0--------0----------------------
b------0--------0-------0-----0------
g------------------------------------
d---2-------2------------------------
a---------4-----------2------2-------
E-0----------------4-------4---------

E E/C# E/G#
En algún lugar
E E/C# E/G# E
ríe el diablo y llora un ángel más.
E/C# E/G#
Ella mira el sol
A F#m11
y ya no luce igual.


Puente

E E/C# E/G# E/G#

e----0--------0---------0------0-----
b------0--------0---------0------0---
g------------------------------------
d---2-------2------------------------
a---------4-----------2------2-------
E-0----------------4-------4---------


E E/C# E/G#
Velo de cristal,
E E/C# E/G# E
empañado, nubla la verdad.
E/C# E/G#
Frágil te encontré,
A F#m11 B
con marcas en la piel.


Asus F#sus C#m7
Nadie escuchó ni quiso ver
Bsus7 Bbsus Asus
a un ángel de alas rotas.


E E/C# E/G#
Duele renacer,
E E/C# E/G#
no hay ocaso sin amanecer.
E E/C# E/G#
Te veré brillar
A F#m11 B
entre sombras que no están.


Asus F#sus C#m7
Nadie escuchó ni quiso ver
Bsus7 Bbsus Asus
a un ángel de alas rotas.


Bsus7 Bsus4 Asus E F#sus
No pierdas tiempo, todavía hay mucho por hacer.

Bsus7 Bsus4 Asus E F#sus
Que la tristeza amarga no te impida florecer.

Bsus7 Bsus4 Asus E F#sus
No tengas miedo, dale luz a tanta oscuridad,

Bsus7 Bsus4 Asus E F#sus
de esta pesadilla, junto al sol despertarás.


Puente
Asus F#sus Asus F#sus


A5 F#sus A#m6 F#sus
Quiero ver que ella vuelve a sonreír.
A5 F#sus A#m6 F#sus
Quiero ver que ella vuelva a sonreír.



Bsus7 Bsus4 Asus E F#sus
No pierdas tiempo, todavía hay mucho por hacer.

Bsus7 Bsus4 Asus E F#sus
Que la tristeza amarga no te impida florecer.

Bsus7 Bsus4 Asus E F#sus
No tengas miedo, dale luz a tanta oscuridad,

Bsus7 Bsus4 Asus E F#sus
de esta pesadilla, junto al sol despertarás.


E E/G# A B Bsus4
Oh, oh, oh...

Bsus7
e----0-------
b----0-------
g----4-------
d----2-------
a----4-------
E----x-------

C#m7*
e----0-------
b----0-------
g----6-------
d----4-------
a----6-------
E----x-------

F#m11
e----0--------
b----0--------
g----2--------
d----4--------
a----4--------
E----x--------

Bbsus4
e----0--------
b----0--------
g----3--------
d----3--------
a----1--------
E----x--------

F#sus
e----2--------
b----2--------
g----4--------
d----4--------
a----4--------
E----2--------


ACORDES PARA GUITARRA

PIANO UKELELE
E
E/C#
E/G#
A
F#m11
B
Asus
F#sus
C#m7
Bsus7
Bbsus
Bsus4
A5
A#m6
C#m7
Bbsus4


COMENTARIOS

Aún no hay comentarios,

¡escribe el primero!

Escribe una pregunta, duda o comentario sobre esta canción, te responderemos a la brevedad.

Las más tocadas de El bordo

Toca una Canción al Azar de El bordo
E
E/C#
E/G#
A
F#m11
B
Asus
F#sus
C#m7
Bsus7
Bbsus
Bsus4
A5
A#m6
C#m7
Bbsus4