Diente de león
El bordo
Acordes

Subida por CesiahG


Más Versiones
Ver. 2 Ver. 3

Cambiar Cifrado
Americano Latino

Cambiar Tonalidad
-1 +1

Partir Pantalla Imprimir FAQ

+A
-A


Ver solo la LETRA
Intro

Arranca el bajo
1 ------------------------------------------------------
2 ------------------------------------------------------
3 ------------------------------------------------------
4 ------------------------------------------------------
5 ------------------------------------------------------
6 --5--5--3--5--3--5----5---5---3---5---3---5-----------

Dsus2/A Csus2/G Asus2/E
Dsus2/A Csus2/G A5



Riff 1 E5 G5 E5 A5:

E----------------------
B----------------------
G----------------------
D----------------------
A------5-----7---------
E---0--3--0--5---------

E5 G5 E5 A5 (Riff 1)
Sembrando miedo a tu alrededor
A5 E5 G5 E5 A5
La paranoia es su mejor disfraz
A5 E5 G5 E5 A5
Narcotizando agujas del reloj
A5 E5 (traste 7) D5 C5 F5
Fabrican caos para gobernar.

F F5 G5 F#5
Sigo buscando una voz real
F E5 G5 E5 A5
Será por eso que algo huele mal.


A5 (en cuerda cuatro) E5 G5 E5 A5
Es el comercio de la información
A5 (en cuerda cuatro) E5 G5 E5 A5
Los traficantes de la realidad
A5 (en cuerda cuatro) E5 G5 E5 A5
Palabras muchas y nada que hablar
A5 (en cuerda cuatro) E5 (traste 7) D5 C5 F5
No robarán tu risa nunca más.


F F5 G5 F#5
Yo te regalo un diente de león
F
Para que aprendas a comunicar.

Am G C
Cambio flor por melodía
F Am
Tu mentira va a escapar
G F
Donde esconde tu verdad.

E5 G5 E5 A5


E ------------------------------------------------------------------
B ------------------------------------------------------------------
G ------------------------------------------------------------------ x2
D ------------------------------------------------------------------
A ----------------3----5-----3-----6------3-5--5h6-5--3-------------
E -0--3--0--5---5----5-----5-----5-----5-----------------5----------


Riff 2

E------------------
B------------------
G------------------
D------------------
A---3---5-6-5------
E-5---5-------5----
D5 C5 A5

E5(traste 7) D5 C5 A5
Apocalipsis en el corazón
Riff 2 E5(traste 7)
El alimento de la sociedad
Riff 2 E5(traste 7) D5 C5 A5
Será la música tu mejor pan
E5(traste 7) D5 C5 F5
Sólo tu música me va a salvar.


F F5 G5 F#5
Un noble kamikaze va a estallar
F
Lo dijo el Flaco ya hace un tiempo atrás.


Am G C
Cambio flor por melodía
F Am
Tu mentira va a escapar
G F
Donde esconde tu verdad.

F (solo desde cuarta cuerda)
Y van enganchados
Em F5
Del dolor de los que solamente creen por creer
Fm
O reventar...

1 ------------------------------------------------------
2 ------------------------------------------------------
3 ------------------------------------------------------
4 ------------------------------------------------------
5 ------------------------------------------------------
6 --5--5--3--5--3--5----5---5---3---5---3---5-----------

Dsus2/A Csus2/G Asus2/E x3
Dsus2/A Csus2/G A5

E5 G5 E5 A5
A5 (en cuerda 4)


Bm A D
Cambio flor por melodía
G Bm
Tu mentira va a escapar
A G
Donde esconde tu verdad.

A5 B5 A5 B5

Acordes raros:

Dsus2/A
e|---5----
B|---5----
G|---7----
D|---7----
A|---5----
E|---5----

Csus2/G
e|---3----
B|---3----
G|---5----
D|---5----
A|---3----
E|---3----

Asus2/E
e|--------0
B|--------0
G|---2----
D|---2----
A|--------0
E|--------0

A5 (en cuerda cuatro)
e|--------x
B|---10----
G|---9-----
D|---7-----
A|--------x
E|--------x

E5 (en traste 7)
e|---------x
B|---------x
G|---9-----
D|---9-----
A|---7-----
E|---------x

Abrazo y aguante El Bordo locooo!!!


ACORDES PARA GUITARRA

PIANO UKELELE
Dsus2/A
Csus2/G
Asus2/E
A5
E5
G5
D5
C5
F5
F
F#5
Am
G
C
Em
Fm
Bm
A
D
B5


COMENTARIOS

Aún no hay comentarios,

¡escribe el primero!

Escribe una pregunta, duda o comentario sobre esta canción, te responderemos a la brevedad.

Las más tocadas de El bordo

Toca una Canción al Azar de El bordo
Dsus2/A
Csus2/G
Asus2/E
A5
E5
G5
D5
C5
F5
F
F#5
Am
G
C
Em
Fm
Bm
A
D
B5