La Patada
El bordo
Acordes

Subida por PASSIOn
Álbum: En la vereda de enfrente ( 2006)


Más Versiones
Ver. 2 Ver. 3 Ver. 4

Cambiar Cifrado
Americano Latino

Cambiar Tonalidad
-1 +1

Partir Pantalla Imprimir FAQ

+A
-A


Ver solo la LETRA
intro:

e-------------------
B-------------------
G-------------------
D------12----2------
A------12--2-0-2----
E--0-0-----3---3---- x 8


Em
Despierto en el mismo y antiguo escenario
las cosas no cambian y pasan los años.
La caja vomita, el diario entretiene
le venden mentiras a los que no tienen.
Quisiera encontrarle una vuelta al problema
si tarde o temprano el embudo te lleva
¿Dónde estará el culo de esta forrada?
Para saber donde apuntar la patada.

riff de intro x 3

e-------------------
B-------------------
G-------------------
D-2-0---------------
A-----2-1-0---------
E-----------0-1-2-3-

G D
Si al final lo que nos queda es el amor
C
¿Cómo se enseña a amar a alguien que no tuvo de comer?
G D
Odio las penas con una salida oscura
Am C5
pero a veces solo quiero, poder patear esta locura.

riff de intro x 4

Em
Me enferma y no creo más ni una mentira
de la prensa que hoy todo, todo domina
y siento arcadas de solo pensar
en curas que chicos disfrutan tocar.
Mi triste consuelo es pensar que algún día
al Hijo de puta le duela la vida
que al paso del tiempo nos sobre memoria
y venga el momento en que cambie la historia.

riff de intro x 3

e-------------------
B-------------------
G-------------------
D-2-0---------------
A-----2-1-0---------
E-----------0-1-2-3-

G D
Si al final lo que nos queda es el amor
C
¿Cómo se enseña a amar a alguien que no tuvo de comer?
G D
Odio las penas con una salida oscura
Am C5
pero a veces solo quiero, poder patear esta locura.

Em

riff 1

La Revolución está en las mentes. x 4

repite con riff de intro hasta el fin


riff 1

e----------------------------------------------------------------
B----------------------------------------------------------------
G----------------------------------------------------------------
D----------------------------------------------------------------
A----------------------------------------------------------------
E-12-12-12-12-12-12-12-12-10-10-10-10-10-10-10-10-8-8-8-8-8-8-8-8

e----------------------------------------------------------------
B----------------------------------------------------------------
G----------------------------------------------------------------
D----------------------------------------------------------------
A----------------------------------------------------------------
E-7-7-7-7-7-7-7-7------------------------------------------------



un temazo...
cualquier correccion o duda a [email protected]


ACORDES PARA GUITARRA

PIANO UKELELE
Em
G
D
C
Am
C5


COMENTARIOS

Aún no hay comentarios,

¡escribe el primero!

Escribe una pregunta, duda o comentario sobre esta canción, te responderemos a la brevedad.

Las más tocadas de El bordo

Toca una Canción al Azar de El bordo
Em
G
D
C
Am
C5