Peatonal
El bordo
Acordes

Subida por eugge


Más Versiones
Ver. 2

Cambiar Cifrado
Americano Latino

Cambiar Tonalidad
-1 +1

Partir Pantalla Imprimir FAQ

+A
-A


Ver solo la LETRA
A
e|---------------------
B|-2-----2h3-5-3-2-----
G|-2--2h4---------4-2--
D|-2h4---------------4- x3
A|---------------------
E|---------------------

A D
e|-------------------------------5-4-2-0-------2----2-
B|-2-----2h3-5-3-2-----2-----2h3--------3-2---3----3--
G|-2--2h4---------4-2--2--2h4----------------2----2---
D|-2h4---------------4-2h4------------------0----0---- x4
A|----------------------------------------------------
E|----------------------------------------------------

E D E D E D
e|---------------------------------
B|----9----7----9----7----9--------
G|---9----7----9----7---9---9/7-7~-
D|--9----7----9----7-----9---------
A|-7----5----7----5----7-----------
E|---------------------------------

A
e|------5------------5-|
B|--5--5-5---5----5--5-|
G|-6--6-----6-6--6-6-6-|
D|---------7----7----7-|
A|-------------------7-|
E|-------------------5-|



Eso es todo, escuchien bien a la viola sobre todo en el final
la parte q hace E D y dsps A puede variar con rasgueos y eso
aunq a mi me parece q la 1er viola hace así jeje :-)
weno cualkier duda keja o sugerencia me mandan mail
[email protected]
Aguante el Rock n´ roll y nada mas,
es algo que los chetos no pueden entender!


ACORDES PARA GUITARRA

PIANO UKELELE
A
D
E


COMENTARIOS

Aún no hay comentarios,

¡escribe el primero!

Escribe una pregunta, duda o comentario sobre esta canción, te responderemos a la brevedad.

Las más tocadas de El bordo

Toca una Canción al Azar de El bordo
A
D
E