Siempre Original
El bordo
Acordes

Subida por Amaranta


Más Versiones
Ver. 2 Ver. 3

Cambiar Cifrado
Americano Latino

Cambiar Tonalidad
-1 +1

Partir Pantalla Imprimir FAQ

+A
-A


Ver solo la LETRA
Intro: Riff 1

Riff 1

e|-12-12-12-------------------12-12----------12-----|
B|-12-12-12-14-12-------------12-12----------12-----|
G|----------------12/13-------------14-12-13--------|
D|----------------------14--------------------------|
A|--------------------------------------------------|
E|--------------------------------------------------|


E
Esta vez voy a hacerlo
C#m
voy a dejar mi rutina y a rodar
A
voy a escuchar este motor
E Riff 2
de lo que siento

Riff 2

e|--------------------------|
B|--------------------------|
G|--------------------------|
D|--------------------------|
A|-2-2-4-2------------------|
E|-0-0-----3/4-0------------|


E Riff 1
Y otra vez la ruta me lleva
C#m
seré tu esclavo por otra noche más...
A
sin saber lo que es verdad
E Riff 2
de lo que es sueño


E
Y es verdad, no soy diferente
C#m
pero mi alma es siempre original
A
quiero ser libre y no pensar
E Riff 2
en lo que es cierto


B
Y si te agita en el dolor
C#m A
la desilusión de un mundo
E
que oculta su mano
B C#m A
estas desnuda pero vine a sacarte tu dolor


B
Y si me agito al respirar
C#m A E
solo estoy sintiendo mas, ya no me tengas miedo
A C#m A
voy a darte todo lo que no te di
E Riff 1
mientras no estuve con vos


E
Y es verdad, no soy diferente
C#m
pero mi alma es siempre original
A
quiero ser libre y no pensar
E Riff 2
en lo que es cierto


Y si te agita en el dolor
la desilusión de un mundo
que oculta su mano
estas desnuda pero vine a sacarte tu dolor


Y si me agito a respirar
solo estoy sintiendo mas, ya no me tengas miedo
voy a darte todo lo que no te di
mientras no estuve con vos


E C#m
Esta vez voy a hacerlo, voy a dejar mi rutina y a rodar...


ACORDES PARA GUITARRA

PIANO UKELELE
E
C#m
A
B


COMENTARIOS

Aún no hay comentarios,

¡escribe el primero!

Escribe una pregunta, duda o comentario sobre esta canción, te responderemos a la brevedad.

Las más tocadas de El bordo

Toca una Canción al Azar de El bordo
E
C#m
A
B