Silbando una ilusión
El bordo
Acordes

Subida por Pancha
Álbum: En la vereda de enfrente ( 2006)


Más Versiones
Ver. 2 Ver. 3 Ver. 4 Ver. 5 Ver. 6

Cambiar Cifrado
Americano Latino

Cambiar Tonalidad
-1 +1

Partir Pantalla Imprimir FAQ

+A
-A


Ver solo la LETRA
intro:      (PM: palm mute)
PM
e-----------------------
b-----------------------
g--9--------------------
d---9-11--9-------------
a-------11--9-11--------
E---------------12------ x 4

riff 1
e-------------------
b-------------------
g--9----------------
d---9-11--9---------
a-------11--9-11----
E---------------12--

riff 2
e-------------------
b-------------------
g--4----------------
d---4-6---4---------
a-------6---4-6-----
E---------------7---

riff 3
e-------------------
b-------------------
g--2----------------
d---2-4---2---------
a-------4---2-4-----
E--------------5----
***(la guitarra principal toca el acorde
y la secundaria los riff)***

[E] [ riff 1 PM]
Como el viento que silba una ilusion,
[B] [ riff 2 PM]
como contagia un bostezo entre los dos,
[A] [ riff3 PM] [E] [ riff 1PM]
como estrellas que yo nunca habre mirado,
[B] [ riff 2 PM]
como el arbol que nunca hizo ruido,
[A] [ riff 3 PM]
porque nadie nunca escucho,
[E]
asi se escucha mi voz.

***(la segunda guitarra toca los mismos
acordes pero en 5°)***

[E]
Arranco pensando en que diran,
[B]
si el futuro me espera para mal,
[A] [E]
si mañana mis palabras seran tuyas,
[B]
Y voy a preguntarle a Dios,
[A]
si es que el me olvido,
[E]
o nunca se acordo...

[B] [A]
Vengo arrastrando esta pena
[E] [B]
que ruje y agita lamentos de un corazon roto
[A] [E] [E]
que a veces, a veces tiene razon.

solo:
[B] [A] [B] [A]
e----------------------------------------------------5-4-2-5-
b-----------------------5-4-2-----4-4-5-7h9-7-5-4-4h5--------
g--4-4-6-8-9-8-9-8-8-6h4-----4-2-1---------------------------
d------------------------------------------------------------
a------------------------------------------------------------
E------------------------------------------------------------


[E]
Despacio comienzo a caminar
[B]
y no encuentro en el suelo la verdad
[A] [E]
si lo malo va algun dia a hacerme fuerte
[B]
Y voy a preguntarle a Dios,
[A]
si es que el me olvido,
[E]
o nunca se acordo...

[B] [A]
Vengo arrastrando esta pena
[E] [B]
que ruje y agita lamentos de un corazon roto,
[A] [B]
que vengo arrastrando esta pena
[E] [B]
que ruje y agita lamentos de un corazon roto,
[A]
que a veces....

solo de armonica : [B A x3] [B E]

final del solo de armonica:
e----------------
b----------------
g----------------
d----------------
a----------------
E-5-4-2-4-2-0----

final
***(el preimero se toca con palm mute y
el resto libre)***

PM
e-----------------------
b-----------------------
g--9--------------------
d---9-11--9-------------
a-------11--9-11--------
E---------------12------

e-----------------------
b-----------------------
g--9--------------------
d---9-11--9-------------
a-------11--9-11--------
E---------------12------ x 2

e-----------------------
b-----------------------
g--9--------------------
d---9-11--9-----9-------
a-------11--9-11--------
E-----------------12----


ACORDES PARA GUITARRA

PIANO UKELELE
E
B
A


COMENTARIOS

Aún no hay comentarios,

¡escribe el primero!

Escribe una pregunta, duda o comentario sobre esta canción, te responderemos a la brevedad.

Las más tocadas de El bordo

Toca una Canción al Azar de El bordo
E
B
A