Volando
El bordo
Acordes

Subida por Jhonathan3345
Álbum: Un grito en el viento ( 2004)


Más Versiones
Ver. 2 Ver. 3 Ver. 4 Ver. 5

Cambiar Cifrado
Americano Latino

Cambiar Tonalidad
-1 +1

Partir Pantalla Imprimir FAQ

+A
-A


Ver solo la LETRA
DO                     FA       DO    FA
Si entendes que en el sueño no hay pecado,
DO FA LAm
Vos sabes que luchando se puede hacer.
DO FA DO FA
Si entendes que tan solo fue un día malo,
DO FA LAm
Vos sabes que mañana te esperan bien

FA DO
Noches sin paz, sol y final. riff1
MIm
Cuando llega el dulce encuentro
FA FAm
Se te entibia el corazón
DO FA DO FA
Y empieza a brillar.


DO FA DO
Hoy te quiero llevar al otro lado
DO FA LAm
Y encontrar nuestras almas en ese lugar
DO FA DO
Los Perdidos que sin camino vamos
DO FA LAm
Siempre mucho mas lejos queremos llegar.


Noches sin paz... (aca solo cambia el final de la parte,
que en vez de hacer FAm hace SOL)


DO REm7 MIm
Hoy me vuelvo otra vez y no puedo entender
FA
Tanta magia y no estar en el cielo.
DO REm7 MIm FA
Ya no quiero nada más. Riff 2


DO FA DO
Hoy te quiero llevar al otro lado
DO FA LAm
Y encontrar nuestras almas en ese lugar
DO FA DO
Los Perdidos que sin camino vamos
DO FA LAm
Siempre mucho mas lejos queremos llegar.

Noches sin paz....


Hoy me vuelvo otra vez...

Solos de viola

Y me vuelvo otra vez....

solo de armónica

Y EN EL FINAL… SOL-SOL-FA-DO

SOL-SOL-FA-MIm-REm-DO-FA-MIm-RE-RE-SOL-SOL-DO

riff1
e---------------
B---------------
G----0-2-0------
A---2-----2-3-2-
E--3------------


riff 2
e---------------
B--6-5----------
G-----7-5-------
A---------------
E---------------


Solo de viola
e-------------------------------------------------------------------
B-----------------10-8-------------------------------------6h5-3-1-
G--5---5-7-5h9-5------9-10-9-10h12-10h9-10-9---10h9-10-9---5h4-----
D---5-7---------7---------------------------10----------10----------
A-------------------------------------------------------------------
E-------------------------------------------------------------------

e-------------------------------------------------------------------
B-----------5h6-6-6-6-6-6h5-3-5-5h6-6-6---5-6-----------------------
G-----------5---5-5-5-5-5---2-4-5---5-5--5--------------------------
D--2-3-4-5--5h7-7-7-7-7-7h5-----5h7-7-7-----------------------------
A-------------------------------------------------------------------
E-------------------------------------------------------------------

e-------------------------------------------------------------------
B------------0-1--1-3-1--1-3-5-3-1-6h5h6h5-8-6-5--------------------
G---------0-2----2-----2-----------5h4h5h4------7-5-----------------
D----0-2-3----------------------------------------------------------
A--3----------------------------------------------------------------
E-------------------------------------------------------------------

final
e-------------
B-6-5-3-3-5---
G----------5--
A-------------
E-------------



FA: REm7:
-----0----------- -----1------------
-----1----------- -----1------------
-----2----------- -----2------------
-----3----------- -----3------------
X----------------- X-----------------
X----------------- X-----------------

bueno esta casi completa es un tema sencillo...

Espero q les sirva

y aguante el bordo...
para la garbocultura..


ACORDES PARA GUITARRA

PIANO UKELELE
C
F
Am
Em
Fm
Dm7
G
Dm
D


COMENTARIOS

Aún no hay comentarios,

¡escribe el primero!

Escribe una pregunta, duda o comentario sobre esta canción, te responderemos a la brevedad.

Las más tocadas de El bordo

Toca una Canción al Azar de El bordo
C
F
Am
Em
Fm
Dm7
G
Dm
D