Corriendo el riesgo
Flemita
Acordes

Subida por Jessi


Más Versiones
Ver. 2 Ver. 3

Cambiar Cifrado
Americano Latino

Cambiar Tonalidad
-1 +1

Partir Pantalla Imprimir FAQ

+A
-A


Ver solo la LETRA
C             G
Otra vez me desilusionás
A F
otra vez te vas sin saludar
C
el beso que mañana
G
nunca vas a recordar
F
más que yo...
C G
Y tal vez el tiempo pasará
A F
y tal vez ni me recordarás
C
no será justo quizás
G F
que me dejes esta vez...
C G
Me gustaría hablar con vos;
C G
me costaría decirtelo;
C G
me jugaría yo por vos...
G F
...corriendo el riesgo de perder...

C F C
¡Corriendo el riesgo de perder!"

Solo

E|--------------------------------------------------------
B|------------------13-15-15--13-15/17--15-17-15-13-15-13-
G|---12-----12---12---------------------------------------
D|------14------------------------------------------------
A|--------------------------------------------------------
E|--------------------------------------------------------

----------------------13-13-13-13--12--12-12-12-12/13-
-15-17-15-13-15-13------------------------------------
------------------------------------------------------
------------------------------------------------------
------------------------------------------------------
------------------------------------------------------

-10--10-8-10-8-8/20-----|
------------------------|
------------------------|
------------------------|
------------------------|
------------------------|


ACORDES PARA GUITARRA

PIANO UKELELE
C
G
A
F


COMENTARIOS

Aún no hay comentarios,

¡escribe el primero!

Escribe una pregunta, duda o comentario sobre esta canción, te responderemos a la brevedad.

Las más tocadas de Flemita

Toca una Canción al Azar de Flemita
C
G
A
F