Nihilismo
Flemita
Acordes

Subida por KevinBarrera


Más Versiones
Ver. 2 Ver. 3 Ver. 4 Ver. 5 Ver. 6

Cambiar Cifrado
Americano Latino

Cambiar Tonalidad
-1 +1

Partir Pantalla Imprimir FAQ

+A
-A


Ver solo la LETRA

G:------------------------------------------------------------
D:---------7>----------7>-------------------------------------
A:--0>----------0>--------------------------------------------
E:------------------------------------------------------------
Verso. x2
G:--------------------|--------------------------------------
D:--------------------|--7-6-4-------------------------------
A:------------5>---7>-|--------------------------------------
E:-----5>-------------|--------------------------------------

+ rapido x2
G:----------------------------------------------------------
D:----------------------------------------------------------
A:------------4-5>--6/7>------------------------------------
E:--5>--7---------------------------------------------------

coro x2
G:------------------------|-------------------------------
D:------------------------|-------------------------------
A:--5>--4------------4-5--|--5-5-4---------6/7>-----------
E:-----------5-5--7-------|-----------5-5-----------------
todo eso x2

verso + rapido
coro
durante el punteo
G:---------------------------------------------------------------
D:-6/7>--------------------6-7-9-----6-7-9-----6-7-9-----6-7-9---
A:----------0-3-4-5>---7----------7---------7----------7---------
E:---------------------------------------------------------------

G:---------------------------------------------------------------
D:---------------------------------------------------------------
A:---------5>--7-5-4------7-5-4-------7-5-4------7-5-4-----------
E:--5>-----------------7-----------7-----------7------------7----

coro




Me prestaron un bajo Ibanez asi ke me puse a sacar temas GRACIAS JUAN!


ACORDES PARA GUITARRA

PIANO UKELELE


COMENTARIOS

Aún no hay comentarios,

¡escribe el primero!

Escribe una pregunta, duda o comentario sobre esta canción, te responderemos a la brevedad.

Las más tocadas de Flemita

Toca una Canción al Azar de Flemita