Acelero
Flemita
Acordes

Subida por musico


Más Versiones
Ver. 2

Cambiar Cifrado
Americano Latino

Cambiar Tonalidad
-1 +1

Partir Pantalla Imprimir FAQ

+A
-A


Ver solo la LETRA
INTRO: A/B X 3 D E D

( la / significa ke hay ke arrastrar el acorde asi la
segunda nota en este caso el B)


F# A E B
En la ruta siempre voy por mas
F# A E B
monto el rayo de la velocidad
F# A E B
solo me keda todo por tomar
F# A E D A/B X 3 D E D
acelero no puedo parar!!

A/B X 3 D E D

(SIGUEN IGUAL LOS VERSOS)

Me persiguen los de la federal
cruzo el puente tambien la provincial
el delito es mi enfermedad
acelero no puedo parar!!!

A/B X 3 D E D


Base del solo: (A/B X 3 D E D) X4
E D A E DA

Solo:

e:---------------------------------------------
B:---------------------------------------------
G:---------7----9-9-7---9---9b--7b-------------
D:----7--9---9--------9------------9--7---9----
A:--9-----------------------------------9------
E:---------------------------------------------
EDA EDA
e:--10-10(MUY RAPIDO Y MUCHAS VECES)-------------
B:------------------------------------------------
G:--------------------------------------9b--------
D:-------------------------------------------9b---
A:------------------------------------------------
E:------------------------------------------------

A/B X 3 D E D

(iguales a los anteriores)
No le temo a tu fascista autoridad
demasiado joven para fracasar
frente a un muro no voy a parar
acelero no puedo parar!!


Final: A/B


Bueno este es otro temaso de flemita
dudas o consultas o cualkier kosa a mi mail.
Suerte para [email protected]

Massi


ACORDES PARA GUITARRA

PIANO UKELELE
A/B
D
E
F#
A
B


COMENTARIOS

Aún no hay comentarios,

¡escribe el primero!

Escribe una pregunta, duda o comentario sobre esta canción, te responderemos a la brevedad.

Las más tocadas de Flemita

Toca una Canción al Azar de Flemita
A/B
D
E
F#
A
B