c ▷ VIVISECCIÓN: (Fun people) Acordes para Guitarra, Piano & Ukelele

Vivisección (Acordes)

Fun people

Full Álbum: Anesthesia (1994)
Subida por SPURGUEON

Compartir


Imprimir FAQ
+A
-A

Texto

Desplazamiento

Transportador

Color de Fondo

Archivos

-A
+A
Intro:


G----------------------------------|
D------------------3-3-3--2-2-2-2--|
A--0--0-0--3--3-3------------------|
E----------------------------------|x2

Verso:

G----------------------------------|
D------------------3-3-3--2-2-2-2--|
A--0--0-0--3--3-3------------------|
E----------------------------------|x4

Pre-coro:

G----------------------------------|
D----------------------------------|
A---------7-7-7-7---------5-5-5-5--|
E--5-5-5-----------7-7-7-----------|x4

G----------------------|
D----------------------|
A----------------------|
E--7-7-7-7-7--7-7-7-7--|x4

Coro:

G------------------------------------|
D------------------------------------|
A--7-7-7-7-7-7-7-7-------------------|
E-------------------7-7-7-7-7-7-7-7--|x4

G----------------------|
D----------------------|
A----------------------|
E--7-7-7-7-7--7-7-7-7--|x4

G------------------------------------|
D------------------------------------|
A--7-7-7-7-7-7-7-7-------------------|
E-------------------7-7-7-7-7-7-7-7--|x4

G----------------------|
D----------------------|
A----------------------|
E--7-7-7-7-7--7-7-7-7--|x4

Eso es todo
Es muy fácil


Video Clip de Vivisección


ACORDES PARA GUITARRA

PIANO UKELELE


TOP 20: Las más tocadas de Fun people


Toca una Canción al Azar de Fun people

Acordes

Cerrar

17.40

x

41