Fa Fa
Guster
Acordes

Subida por sportuondo
Álbum: Lost and Gone Forever ( 1999)


Más Versiones
Ver. 2

Cambiar Cifrado
Americano Latino

Cambiar Tonalidad
-1 +1

Partir Pantalla Imprimir FAQ

+A
-A

***CAPO 4th fret***

* = harmonic (finger rests lightly on the fret)

Chords used:
e|-0---0---0---3---2---|
B|-0---2---1---3---3---|
G|-0---0---0---0---2---|
D|-2---2---2---0---0---|
A|-2---0---3---x---x---|
E|-0---0---x---3---x---|
Em A7 C G D

Intro:

e|-*16----*16----*16----*16----*16----*16----*16----*16--|
B|-----*16----*16----*16----*16----*16----*16----*16-----|
G|-------------------------------------------------------|
D|-------------------------------------------------------|
A|-------------------------------------------------------|
E|-------------------------------------------------------|
When you look in the mirror, wish you were somebody else.


e|-*16----*16----*16----*16----*16----*16----*16----*16--|
B|-----*16----*16----*16----*16----*16----*16----*16-----|
G|-------------------------------------------------------|
D|-------------------------------------------------------|
A|-------------------------------------------------------|
E|-------------------------------------------------------|
Just a perfect reflection you and no one else.


Verse:

Em A7 C G
Minutes run into hours, hours run into days
Em A7 C G
You're still waiting for someone who never ever came.

e|-*16----*16----*16----*16----*16----*16----*16-----------0---0-|
B|-----*16----*16----*16----*16----*16----*16---------0--3---0---|
G|---------------------------------------------------------------|
D|---------------------------------------------------------------|
A|---------------------------------------------------------------|
E|---------------------------------------------------------------|

e|-*16----*16----*16----*16----*16----*16----*16----|
B|-----*16----*16----*16----*16----*16----*16-------|
G|--------------------------------------------------|
D|--------------------------------------------------|
A|--------------------------------------------------|
E|--------------------------------------------------|


Chorus:

Em A7 C G
You were always sayin somethin, you swear you'd never say again
Em A7 C D
You were always sayin somethin, you swear you'd never say again
Em A7 C D
Em A7 C G


Verse:
Em A7 C G
Go and run through the hallways, and find your way to the door
Em A7 C G
You will end up like always, back where you were before.
Em A7 C G
Can you look in the miror, wish you were somebody else
Em A7 C G
vigorously]
But it's still your reflection, you and no one else


Chorus:

Em A7 C G
You were always sayin somethin, you swear you'd never say again
Em A7 C D
You were always sayin somethin, you swear you'd never say again
Em A7 C D
Em A7 C G


Interlude:

e|-*16----*16----*16----*16----*16----*16----*16----*16------|
B|-----*16----*16----*16----*16----*16----*16----*16----*16--|
G|-----------------------------------------------------------|
D|-----------------------------------------------------------|
A|-----------------------------------------------------------|
E|-----------------------------------------------------------|


Bridge:
Em A7 C
No matter where you go, you'll never find your way home
Em A7 C
You'll never find your way home, no matter where you go
Em A7 C G
Oh....................................................
Em A7 C
Oh.....................................

Interlude:

[Em A7 C G] x2


Chorus:

Em A7 C G
You were always sayin somethin, you swear you'd never say again
Em A7 C D
You were always sayin somethin, you swear you'd never say again
Em A7 C D
Em A7 C G


Ending: [strumming hard for basically the whole time]

Em A7 C D

Em A7 C

Em A7 C G

[Em A7 C D] x4

Em A7 C........GGGGGGGGGGG (go crazy)

ACORDES PARA GUITARRA

PIANO UKELELE


COMENTARIOS

Aún no hay comentarios,

¡escribe el primero!

Escribe una pregunta, duda o comentario sobre esta canción, te responderemos a la brevedad.

Las más tocadas de Guster

Toca una Canción al Azar de Guster