One Man Wrecking Machine
Guster
Acordes

Subida por vicvend
Álbum: Ganging Up on the Sun ( 2006)


Más Versiones
Ver. 2

Cambiar Cifrado
Americano Latino

Cambiar Tonalidad
-1 +1

Partir Pantalla Imprimir FAQ

+A
-A
Chords:

-----------------------------------------------------------------------------|
-----------------------------------------------------------------------------|
-----------------------------------------------------------------------------|
--14-14-14-14----------------------------------------------------------------|
--12-12-12-12--14-14-14-14--12-12-12-12-12-12-12-12--------------------------|
---------------12-12-12-12--10-10-10-10-10-10-10-10--------------------------|

A5 E5 D5

--2----0-------------------------------------------------|
--3----0-------------------------------------------------|
--4----1-------------------------------------------------|
--4----2-------------------------------------------------|
--2----2-------------------------------------------------|
-------0-------------------------------------------------|
Bm E

Riff One:

-------5--------5--------------------------------------|
-----5----5-------5--------5-----------5---------------|
--(7)-------7-------7----7----6------7---6-------------|
---------------------------------(7)--------(7)--------|
-------------------------------------------------------|
-------------------------------------------------------|

---5-------5--7-5-------7-5-7-9-7-5--------------------|
-----5-------------5-----------------5-----------------|
--------6------------6-----------------6---------------|
-------------------------------------------------------|
-------------------------------------------------------|
-------------------------------------------------------|


Riff Two:

----5-------5-------7-5-7-9-7-5-----------------------|
--5---5-------5------------------5--------------------|
---------7------7------------------6------------------|
------------------------------------------------------|
------------------------------------------------------|
------------------------------------------------------|

A5 E5 D5
I built a time machine
A5 E5 D5
I'm going to see the homecoming queen
Bm E
Take her to the Christmas dance
Bm E
Maybe now I'll get in her pants, whatever


(Riff One) A5 E5 D5


A5 E5 D5
Back with my high school friends
A5 E5 D5
Meeting where the train tracks end
Bm E
Passing round a skinny joint
Bm E
Going up to Lookout Point


(REF)

A D
I want to pull it apart and put it back together
F#m D
I want to relive all my adolescent dreams
A E
Inspired by true events on movie screens
D A
I am a one man wrecking machine



(Riff Two) A5 E5 D5

Back in my parents' house
Back to shouting out loud

Bm E
One day you'll be a man
One day you'll understand

(REF)
A D
I want to pull it apart and put it back together
F#m D
I want to relive all my adolescent dreams
A E
Inspired by true events on movie screens
D A
I am a one man wrecking machine


F#m E
Inspired by true events on movie screens
D A
I am a one man wrecking machine

Solo: F#m E D A

-------------------------------------------------------|
-5/10---105---5/10---102---2/10---105---5/10---10------|
-------------------------------------------------------|
-------------------------------------------------------|
-------------------------------------------------------|
-------------------------------------------------------|
-------------------------------------------------------|


A5 E5 D5
Here in the present tense
Nothing is making sense

Bm E
Waiting for my moment to come
Everything is still undone

A D
I tried to pull it apart and put it back together
F#m D
No point in living in those adolescent dreams
A E
Inspired by true events on movie screens
D A
I am a one man wrecking machine

F#m E
Inspired by true events on movie screens
D A
I am a one man wrecking machine


RIF Final : F#m E D A (2X)

ACORDES PARA GUITARRA

PIANO UKELELE
A5
E5
D5
Bm
E
A
D
F#m


COMENTARIOS

Aún no hay comentarios,

¡escribe el primero!

Escribe una pregunta, duda o comentario sobre esta canción, te responderemos a la brevedad.

Las más tocadas de Guster

Toca una Canción al Azar de Guster
A5
E5
D5
Bm
E
A
D
F#m