Rise And Shine
Guster
Acordes

Subida por Coronayulissa14



Cambiar Cifrado
Americano Latino

Cambiar Tonalidad
-1 +1

Partir Pantalla Imprimir FAQ

+A
-A
Tabbed by: Eric
Email:

Please rate!

Tuning: Standard

Chords used:
A B C# e E F# G#
e|--5---7---4---7---0---2---4----|
B|--5---7---4---7---0---2---4----|
G|--6---8---6---9---1---3---5----|
D|--7---9---6---9---2---4---6----|
A|--7---9---4---7---2---4---6----|
E|--5---7---4---7---0---2---4----|


Intro: x2
e|-----------------------------------------------------------------------------|
B|-----------------------------------------------------------------------------|
G|-----------------------------------------------------------------------------|
D|-----------------------------------------------------------------------------|
A|---/11-9-7---7--------/11-9-7------------------------------------------------|
E|-0---------9---9-7--0---------9-7--------------------------------------------|

Verse:
e C#
There are ghosts in here
e C#
They are stuck in the middle
e C# F# B
Midnight rattling chains
e C#
Just like fireworks
e C#
Heading straight for the heavens
e C# F# B
But explode on the way

A G# B C#
Wake up, sweetheart
A G# E
Rise and shine
A G# B C#
There are bones to bury
A G# F#
And bones to find
A
This place is coming to life


Repeat intro


e C#
Just like dominoes
e C#
First one, then come the others
e C# F# A
Long invisible lines
e C#
Restless prisoners
e C#
Damsels longing for lovers
e C# F# A
Rhymers searching for rhymes

A G# B C#
Wake up, sweetheart
A G# E
Rise and shine
A G# B C#
I hear music playing
A G# F#
Chorus lines
A
This place is coming to life


Interlude for guitar:
e|--------------------------------------------------------|
B|--------------------------------------------------------|
G|--------------------------------------------------------|
D|-----7-----7------7-444-7-----7-----7------7-666-7------|
A|-444---666---777----------444---666---777---------------|
E|--------------------------------------------------------|

e|-----------------------------------------------|
B|-----------------------------------------------|
G|--4-6-8-9--4-6-8-9--4-6-8-9--4-6-8-9-----------|
D|-----------------------------------------------|
A|-----------------------------------------------|
E|-----------------------------------------------|

Repeat intro

e|------------------------------------------------------------------------------|
B|--------9-7---------------9-7---------------9-7---------------9-7-------------|
G|--9-11------9-6--6--9-11-----9-6---6--9-11-----9-6---6--9-11----9-6---6-------|
D|----------------9-----------------9-----------------9-----------------9-------|
A|------------------------------------------------------------------------------|
E|------------------------------------------------------------------------------|


A G# B C#
Speak up, sweetheart
A G# E
We're wasting time
A G# B C#
These are changed surroundings
A G# F#
Hold on tight
A
This place is coming to life


Piano outro for guitar:
e|--------11-12-------11-12-------------|
B|--12-14-------12-14-------12~---------|
G|--------------------------------------|
D|--------------------------------------|
A|--------------------------------------|
E|--------------------------------------|

ACORDES PARA GUITARRA

PIANO UKELELE


COMENTARIOS

Aún no hay comentarios,

¡escribe el primero!

Escribe una pregunta, duda o comentario sobre esta canción, te responderemos a la brevedad.

Las más tocadas de Guster

Toca una Canción al Azar de Guster