Keep It Together
Guster
Acordes

Subida por juantonio
Álbum: Keep It Together ( 2003)


Más Versiones
Ver. 2 Ver. 3

Cambiar Cifrado
Americano Latino

Cambiar Tonalidad
-1 +1

Partir Pantalla Imprimir FAQ

+A
-A

Tabbed By : mike masciocco
e-mail: *
Tuning: Standard

this is correct. this is also my first tab. please rate!


verse

when we all . . .
G-----------------------------------------------------------|
D-----66-----66---------------------------------------------|
A-4-4----4-4--------22-----22-----44-----44-----------------|
E---------------0-0----0-0----2-2----2-2---0-13-35-57-------|

we declared . . .
G-----------------------------------------------------------|
D-----66-----66----------------------------------66-----44--|
A-4-4----4-4--------22-----22-----44-----44--4-4----2-2-----|
E---------------0-0----0-0----2-2----2-2--------------------|


prechorus

so far away . . .
G---------------------------14-12---------------------------|
D---------------------------------14-12---------------------|
A-444444444444444444444444----------------------------------|
E---------------------------------------0-------------------|


chorus

keep it together . . .
G------------------------------------------------------------|
D-----4----------------------------22----22------------------|
A-------4-01-02234----------end/-0----00------23231----------|
E-00----------------------------------------0-------0--------|


bridge

the thunder struck . . .
G------------------------------------------------------------|
D-----------------222-222-222-222----------------------------|
A-444-444-444-444--------------------------------------------|
E------------------------------------------------------------|

our fearless crew was not prepared . . .
G------------------------------------------------------------|
D------------------------------------------------------------|
A-222-222-222-222--------------------------------------------|
E-----------------222-222-000-000----------------------------|


song order
verse
prechorus
chorus
verse
prechorus
chorus
bridge
verse
prechorus
chorus x2


thats it! have fun, and email me if you have any questions.

ACORDES PARA GUITARRA

PIANO UKELELE


COMENTARIOS

Aún no hay comentarios,

¡escribe el primero!

Escribe una pregunta, duda o comentario sobre esta canción, te responderemos a la brevedad.

Las más tocadas de Guster

Toca una Canción al Azar de Guster