Desencantado
Invencibles
Acordes

Subida por 17301613


Más Versiones
Ver. 2 Ver. 3 Ver. 4

Cambiar Cifrado
Americano Latino

Cambiar Tonalidad
-1 +1

Partir Pantalla Imprimir FAQ

+A
-A
Arreglo el final!

=====================================================

[RIFF DEL ESTRIBILLO]

e|-----------------------------------------------------|
B|-----------------------------------------------------|
G|---------------------------------------11-----131313-|
D|----------------4-4--4-2-1---------11----11---131313-|
A|----4-----4---2--2-2------4-2--2/9---9-----9--111111-|
E|-222-2-222-2-----------------------------------------|



[INTRO] en base B-G#m-B-F# x3 B-G#m-B

e|-1111-12-11-16-14-11-14~-11-----1111-12-11-16-14-11-19~-14~-
B|---------------------------12~------------------------------
G|------------------------------------------------------------
D|------------------------------------------------------------
A|------------------------------------------------------------
E|------------------------------------------------------------

e|-1111-12-11-16-14-11-14~-11-----12-11---12-11-9-7-|
B|---------------------------12~-------12-----------|
G|--------------------------------------------------|
D|--------------------------------------------------|
A|--------------------------------------------------|
E|--------------------------------------------------|


[VERSO]

B F# G#m
Se acabó lo de creer que este bosque está encantado
B F# G#m
sin hadas madrinas ni justicieros magos
B F# G#m
donde las promesas de hoy no llenan vacios
B F# G#m
panzas llenas de mentiras y corazones enceguecidos
E F# G#m
donde la realidad es individual

B F# G#m
Veo la portada de un gran diario
B F# G#m
hoy hallaron el cadaver de otro muchacho
B F# G#m
padre empresario y él casi abogado
B F# G#m
cuando hay buen respaldo rapido se atan los cabos


[ESTRIBILLO]

D# E D# E
Sección policiales, cayó un marginado
[RIFF DEL ESTRIBILLO]
F# B F# G#m
era un drogadicto, andaba en algo raro

D# E D# E
Santo de su riqueza, verdugo de su pobreza
[RIFF DEL ESTRIBILLO]
F# B F# G#m
a cuanto se cotizará mañana la injusticia?


[PUENTE]

B E
No quiero ver desde la profundidad
C#m F#
al que quiere anclar mi vida para beneficiarse
B E
no quiero estar en el lugar
C#m F#
de los que temen perder todo por arriesgar
E G#m B F#
la magia llegará y su encanto a este bosque le devolverá

[VERSO]

Las paredes oyen asuntos ajenos
los secretos se divulgan y no conocemos hechos
los milagros no se dan cuenta que los necesitamos
negociable fué y será la libertad

[ESTRIBILLO]

Antidotos para vivir mejor, felicidad y protección
rebelión frente al dolor, progreso e Ilusión

[PUENTE]

No quiero ver desde la profundidad
al que quiere anclar mi vida para beneficiarse
no quiero estar en el lugar
de los que temen perder todo por arriesgar
la magia llegará y su encanto a este bosque le devolverá
quien reirá el día en que el llanto ahogue a la ingenuidad?

[REPITE INTRO] B-G#m-B-F# x3 B-G#m-B

e|-1111-12-11-16-14-11-14~-11-----1111-12-11-16-14-11-19~-14~-
B|---------------------------12~------------------------------
G|------------------------------------------------------------
D|------------------------------------------------------------
A|------------------------------------------------------------
E|------------------------------------------------------------

e|-1111-12-11-16-14-11-14~-11-----12-11---12-11-------------|
B|---------------------------12~-------12-------14-12-------|
G|---------------------------------------------------11-6---|
D|-------------------------------------------------------7~-|
A|----------------------------------------------------------|
E|----------------------------------------------------------|



Hermoso tema y facil d tocar, escuchien al riff dl estribillo
q seguro les va a salir bien!
cualkier cosa me mandan mail a [email protected]
Aguante el Rock n´ roll y nada mas,
es algo que los chetos no pueden entender!


ACORDES PARA GUITARRA

PIANO UKELELE
B
F#
G#m
E
D#
C#m


COMENTARIOS

Aún no hay comentarios,

¡escribe el primero!

Escribe una pregunta, duda o comentario sobre esta canción, te responderemos a la brevedad.

Las más tocadas de Invencibles

Toca una Canción al Azar de Invencibles
B
F#
G#m
E
D#
C#m